Song name
# A B C D E F G H I J K L M N O P Q R S T U V W X Y Z

Anthony Hamilton - Dear Life tab

-------------------------------------------------------------------------------
			     Dear Life - Anthony Hamilton
-------------------------------------------------------------------------------
Tabbed by: shanyebest
Email: shane(dot)combest(at)gmail(dot)com

my first attempt at tabbing. This is what I hear from the solo guitar for the intro. Any
is greatly appreciated. I will expand this guitar part and the rhythm guitar in the
to come. I am also going to arrange a version that requires only one guitar because i 
solo most of the time. enjoy

Tuning: EADGBe

e|------------------------7-5-3-2-|2/3---------------------2/3-3---|
B|------------------------8-7-5-3-|3/5---------------------3/5-5---|
G|--------------------------------|--------------------------------|
D|--------------------------------|--------------------------------|
A|--------------------------------|--------------------------------|
E|--------------------------------|--------------------------------|

e|3/5-33/5--3---2-----------------|--2/33--2--2/3----------------3-|
B|5/7-55/7--5---3-----------------|--3/55--3--3/5----------------5-|
G|--------------------------------|--------------------------------|
D|--------------------------------|--------------------------------|
A|--------------------------------|--------------------------------|
E|--------------------------------|--------------------------------|

e|--0---3---2-------------3-5-3-2-|2/3-----------------------3-----|
B|--1---5---3-------------5-7-5-3-|3/5-----------------------5-----|
G|--------------------------------|--------------------------------|
D|--------------------------------|--------------------------------|
A|--------------------------------|--------------------------------|
E|--------------------------------|--------------------------------|

e|3/5-33/5--3---2-------------2---|0-----------2-3-------------2/3-|
B|5/7-55/7--5---3-------------3---|1---------------------------3/5-|
G|--------------------------------|--------------------------------|
D|--------------------------------|--------------------------------|
A|--------------------------------|--------------------------------|
E|--------------------------------|--------------------------------|

e|3---2-2-------------------------|--------------------------------|
B|5---3-3-------------------------|--------------------------------|
G|--------------------------------|--------------------------------|
D|--------------------------------|--------------------------------|
A|--------------------------------|--------------------------------|
E|--------------------------------|--------------------------------|

| /  slide up
| \  slide down
| h  hammer-on
| p  pull-off
| ~  vibrato
| +  harmonic
| x  Mute note
===============================================================================
Tap to rate this tab
# A B C D E F G H I J K L M N O P Q R S T U V W X Y Z