Anthony Hamilton - Lucille tab

Lucille - Anthony Hamilton tab

Capo on 4 

e|---------0---|
B|---------3---|
G|---------2---|
D|---------0---|
A|---------2---|
E|---------0---|

Intro
e|-----0-----------|
B|----3-3-----3--3-|
G|---2-------2--2--|  x2
D|-----------------|
A|--2--------------|
E|----------0--2---|


e|-----0-------------------|
B|----3-3-----3--3---------|
G|---2-------2--2----------|  
D|-------------------------|
A|--2----------------------|
E|----------0--2-----3-----|
                   

e|-----0-----------|
B|----3-3-----3--3-|
G|---2-------2--2--|  
D|-----------------|
A|--2--------------|
E|----------0--2---|

Bridge
e|------0----0------0-----0-|
B|-----3----3-3----3-----3-3|
G|----2----2------2-----2---|  
D|--------------------------|
A|---------------0-----2----|
E|--2-----3-----------------|
   
e|-----------------------------------|
B|-----------------------------------|
G|----0-----0h2----2-2h3----0h2-2----|
D|---0-0---0------0--------3---------|
A|--3-----2------1--------0----------|
E|-----------------------------------|          
Tap to rate this tab
 
# A B C D E F G H I J K L M N O P Q R S T U V W X Y Z