Song name
# A B C D E F G H I J K L M N O P Q R S T U V W X Y Z

Anthony Phillips - Which Way The Wind Blows tab

Anthony Phillips - Which Way The Wind Blows

I got most of the fingerings from Brett Kull's Cover

These are just the fingerings of the chords used. Listen to the song to get the 
right strumming patterns but it's not that hard.

|4--2--0--0---x--7--5--4--0|
|5--0--0--0---15-7--5--5--5|
|6--1--2--1---9--9--6--6--6|
|7--2--4--2---11-6--4--4--4|
|0--2--4--2---12-6--4--4--4|
|0--0--0--0---0--0--0--0--0|

|0---0-0-0--0----0---0-0-0--0|
|0---0-0-0--2----0---0-0-0--2|
|1---2-2-1--2----1---2-2-1--2|
|2---2-2-2--2----2---2-2-2--2|
|2---2-2-2--0----2---2-2-2--0|
|0---0-0-0--0----0---0-0-0--0|

|0--0--0--0--0--0--0--0--0--0---0---0|
|0--0--0--0--0--0--0--0--3--3---3---3|
|2--4--2--4--7--4--7--4--0--0---0---0|
|4--6--4--6--5--4--5--4--4--2---4---2|
|4--6--4--6--7--5--7--5--2--2---2---2|
|0--0--0--0--0--0--0--0--0--0---0---0|

|0---0-0-0--0----0---0-0-0--0|
|0---0-0-0--2----0---0-0-0--2|
|1---2-2-1--2----1---2-2-1--2|
|2---2-2-2--2----2---2-2-2--2|
|2---2-2-2--0----2---2-2-2--0|
|0---0-0-0--0----0---0-0-0--0|

|0---0---0---0---0---0---0---0---0---0-3-2-0---------0--0------0-5-7|
|0---0---0---0---0---0---0---0---3---3--------3-1-0--3--3-----0-----|
|2---4---2---4---7---4---7---4---0---0-------------2-0--0----2------|
|4---6---4---6---5---4---5---4---4---2---------------4--2---2-------|
|4---6---4---6---7---5---7---5---2---2---------------2--2--2--------|
|0---0---0---0---0---0---0---0---0---0---------------0--0-----------|

Strum the slide

|0-0-0/0/0-0--0-0/0/0/0|
|0-0-0/0/0-0--0-0/0/0/0|
|1-1-1/2/4-4--2-2/4/6/4| X2
|2-2-2/4/6-6--4-4/6/7/6|
|2-2-2/4/6-6--4-4/6/7/6|
|0-0-0/0/0-0--0-0/0/0/0|

|0-0-0/0/0-4--0--4--0--0/0/0-0/0-0-0|
|0-0-0/0/0-5--4--5--0--0/0/0-0/0-0-0|
|1-1-1/2/4-6--4--6--4--1/2/4-4/2-2-2|
|2-2-2/4/6-7--4--6--6--2/4/6-6/4-4-4|
|2-2-2/4/6-0--0--0--6--2/4/6-6/4-3-2|
|0-0-0/0/0-0--0--0--0--0/0/0-0/0-0-0|

|0---0-0-0--0----0---0-0-0--0|
|0---0-0-0--2----0---0-0-0--2|
|1---2-2-1--2----1---2-2-1--2|
|2---2-2-2--2----2---2-2-2--2|
|2---2-2-2--0----2---2-2-2--0|
|0---0-0-0--0----0---0-0-0--0|

|0---0---0---0---5---4---5---4-(2)-0--0--0--0-2|
|0---0---0---0---0---5---0---5--4--0--0--5--0-0|
|2---4---2---4---4---6---4---6--4--4--4--6--0-0|
|4---6---4---6---0---6---0---6--4--6--6--6--2-2|
|4---6---4---6---2---0---2---0--0--6--5--4--3-3|
|0---0---0---0---0---0---0---0--0--0--0--0--0-0|

|0---0--0-0-0---0--0-0-0--0-3-2-0-------0-0-----0-5-7|
|0---0--0-0-0---0--0-0-3--3------3-1-0--3-3----0-----|
|7---4--4-4-7---4--4-4-0--0-----------2-0-0---2------|
|5---4--2-4-5---4--2-4-4--2-------------4-2--2-------|
|7---5--5-5-7---5--5-5-2--2-------------2-2-2--------|
|0---0--0-0-0---0--0-0-0--0-------------0-0----------|

Strum the slide

|0-0-0/0/0-0-0-0/0/0/0|
|0-0-0/0/0-0-0-0/0/0/0|
|1-1-1/2/4-4-2-2/4/6/4| X2
|2-2-2/4/6-6-4-4/6/7/6|
|2-2-2/4/6-6-4-4/6/7/6|
|0-0-0/0/0-0-0-0/0/0/0|

|0-0-0/0/0-4--0--4--0--0/0/0-0/0-0\0--0--0|
|0-0-0/0/0-5--4--5--0--0/0/0-0/0-0\0--0--0|
|1-1-1/2/4-6--4--6--4--1/2/4-4/2-2\1--2--2|
|2-2-2/4/6-7--4--6--6--2/4/6-6/4-4\2--4--4|
|2-2-2/4/6-0--0--0--6--2/4/6-6/4-4\2--3--2|
|0-0-0/0/0-0--0--0--0--0/0/0-0/0-0\0--0--0|

|-----0-------0-------0---0--0---|
|----0-0-----0-0-----0-0---0--0--|
|---3---3---3---3---3---3---3--3-| fade out
|--4-----4-4-----4-4-----4-------|
|-4-------3-------2--------------|
|(0)-----(0)-----(0)-------------|
Tap to rate this tab
# A B C D E F G H I J K L M N O P Q R S T U V W X Y Z