Song name
# A B C D E F G H I J K L M N O P Q R S T U V W X Y Z

Anthony Raneri - Please Dont Leave tab




e--0----3----7----3----7----3----5----5----3----3----0----3----2--------|
b--0----3----8----4----8----4----5----7----3----3----0----5----3--------|
g--0----4----9----5----9----5----5----7----4----4----0----5----2--------|
d--2----5----9----5----9----5----7----7----5----4----2----5----0--------|
a--2----------7----3----7----3----7----5---------------2----3----0------|
E-0----------------------------------5--------------------0-------------|

Chorus:

e--3----3----0----2-----|
b--3----3----1----3-----|
g--4----4----0----2-----|
d--5----5----2----0-----|
a--5----5----3----0-----|
E--3----2----3----------| X3

e--0----0----0----2----|
b--0----1----1----3----|
g--0----0----2----2----|
d--2----2----2----0----|
a--2----3----0----0----|
E--0----3----0---------|

Bridge:
e--0----0----0----2--|
b--0----1----1----3--|
g--0----0----2----2--|
d--2----2----2----0--|
a--2----3----0----0--|
E--0----3----0-------| X3

e--3----3-----|
b--5----4-----|
g--5----5-----|
d--5----5-----|
a--3----3-----|
E-------------|
Tap to rate this tab
# A B C D E F G H I J K L M N O P Q R S T U V W X Y Z