Song name
# A B C D E F G H I J K L M N O P Q R S T U V W X Y Z

Anthrax - Ssc Stand Or Fall tab

#----------------------------------PLEASE NOTE---------------------------------#
#This file is the author's own work and represents their interpretation of the #
#song. You may only use this file for private study, scholarship, or research. #
#------------------------------------------------------------------------------#

S.S.C. STAND OR FALL
As recorded by ANTHRAX
(From the 1985 Album SPREADING THE DISEASE)

Transcribed by Russ Elton (webmaster@abysslord.com)
	

Words and Music by ANTHRAX
Arranged by Mike Brown (warlockmb2000@yahoo.com)

Gtr I (E A D G B E) - 'Untitled'
Gtr II (E A D G B E) - 'Untitled'
Gtr III (E A D G B E) - 'Untitled'

  Moderately Q=114
 4/4
  Gtr I
                                          |-3-|
  E E  E  E E  E  E E   E      E   E  E E S S S E E
|---------------------|-----------------------------|
|---------------------|-----------------------------|
|---------------------|-----------------------------|
|--------------6------|-6------6---6--6---7h9p7-----|
|-7-7--7--7-8-----8-7-|-------------------------8---|
|---------------------|-----------------------------|
|
| Gtr II
|                       |-3-|
| E E +E  E E +E  E E   S S S +E  +H.
|---------------------|-----------------------------|
|---------------------|-----------------------------|
|---------------------|-----------------------------|
|---------------------|-6h7-6-(6)-(6)---------------|
|---------5-7-(7)-5---|-----------------------------|
|-7-8-(8)-------------|-----------------------------|


                                             |-3-|
  E E       E   E E E E   E    E E E   E  E  S S S  E E
|----------------------------|---------------------------|
|----------------------------|---------------------------|
|----------------------------|---------------7h9p7-------|
|-------------------6--------|-6-6-6---6-----------10-9--|
|-7-7-------7---7-8---8---7--|---------------------------|
|----------------------------|---------------------------|
|
|   |-3--|
| E S  S S +E   E E E S S E    Q   S S E +H
|----------------------------|---------------------------|
|----------------------------|---------------------------|
|--------9-(9)-10-9-7-7h9-9\-|-4-------------------------|
|---9h10---------------------|-----7-6-------------------|
|----------------------------|---------7-(7)-------------|
|----------------------------|---------------------------|


  PM--------|     PM------------|
                                    |-3-|
  E E  E  E E  E  E E   E E  E  E E S S S E E
|---------------------|-----------------------|
|---------------------|-----------------------|
|---------------------|-----------------------|
|--------------6------|-6-6--6--6---7h9p7-----|
|-7-7--7--8-8-----8-7-|-------------------8---|
|---------------------|-----------------------|
|
| E E +E  E E +E  E E   E E +H.
|---------------------|-----------------------|
|---------------------|-----------------------|
|---------------------|-----------------------|
|---------------------|-----------------------|
|---------5-7-(7)-5---|-----------------------|
|-7-8-(8)-------------|-5-7-(7)---------------|


  PM--------------|   PM---------------|
                                             |-3-|
  E E       E   E E E E   E    E E E   E  E  S S S  E E
|----------------------------|---------------------------|
|----------------------------|---------------------------|
|----------------------------|---------------7h9p7-------|
|-------------------6--------|-6-6-6---6-----------10-9--|
|-7-7-------7---7-8---8---7--|---------------------------|
|----------------------------|---------------------------|
|
|   |-3--|
| E S  S S +E   E E E S S E    Q   S S E +H
|----------------------------|---------------------------|
|----------------------------|---------------------------|
|--------9-(9)-10-9-7-7h9-9\-|-4-------------------------|
|---9h10---------------------|-----7-6-------------------|
|----------------------------|---------7-(7)-------------|
|----------------------------|---------------------------|


  PM--------|     PM------------------|
                                          |-3-|
  E E  E  E E  E  E E   E      E   E  E E S S S E E   Wx10
|---------------------|-----------------------------|---------|
|---------------------|-----------------------------|---------|
|---------------------|-----------------------------|---------|
|--------------6------|-6------6---6--6---7h9p7-----|---------|
|-7-7--7--7-8-----8-7-|-------------------------8---|---------|
|---------------------|-----------------------------|---------|
|
|                       |-3-|
| E E +E  E E +E  E E   S S S +E  +H.                 Wx10
|---------------------|-----------------------------|---------|
|---------------------|-----------------------------|---------|
|---------------------|-----------------------------|---------|
|---------------------|-6h7-6-(6)-(6)---------------|---------|
|---------5-7-(7)-5---|-----------------------------|---------|
|-7-8-(8)-------------|-----------------------------|---------|


    Faster Q=270
    Gtr III
                     PM------------|
    Q.   E +Q   Q    E E E E E E E E  3x Q.   E +Q   Q   W
||-----------------|------------------||---------------|-------|
||o----------------|-----------------o||---------------|-8\----|
||--5----5-(5)--5--|------------------||-5----5-(5)--5-|-7\----|
||--5----5-(5)--5--|------------------||-5----5-(5)--5-|-------|
||o----------------|-0-0-0-0-0-0-0-0-o||---------------|-------|
||-----------------|------------------||---------------|-------|


                     PM------------|
    Q.   E +Q   Q    E E E E E E E E  4x
||-----------------|------------------||
||o----------------|-----------------o||
||--5----5-(5)--5--|------------------||
||--5----5-(5)--5--|------------------||
||o----------------|-0-0-0-0-0-0-0-0-o||
||-----------------|------------------||


                       PM------------|
      Q.   E +Q   Q    E E E E E E E E  4x
|-||-----------------|------------------||
|-||o----------------|-----------------o||
|-||--8----8-(8)--8--|------------------||
|-||--8----8-(8)--8--|------------------||
|-||o----------------|-----------------o||
|-||-----------------|-8-8-8-8-8-8-8-8--||


    W          +W           Q.   E +Q   Q    Q.   E +Q   Q
||-----------|------------|----------------|------------------||
||o----------|------------|----------------|-----------------o||
||-----------|------------|-------------0--|-------------0----||
||--2--------|-(2)--------|------0-(0)-----|------0-(0)-------||
||o-0--------|-(0)--------|----------------|-----------------o||
||-----------|------------|-2--------------|-3----------------||


  W          +W           +W           +W
|----------|------------|------------|--------|
|----------|------------|------------|--------|
|----------|------------|------------|--------|
|----------|------------|------------|--------|
|----------|------------|------------|--------|
|-0--------|-(0)--------|-(0)--------|-(0)----|


                     PM------------|
    Q.   E +Q   Q    E E E E E E E E  4x
||-----------------|------------------||
||o----------------|-----------------o||
||--5----5-(5)--5--|------------------||
||--5----5-(5)--5--|------------------||
||o----------------|-0-0-0-0-0-0-0-0-o||
||-----------------|------------------||


                       PM------------|
      Q.   E +Q   Q    E E E E E E E E  4x
|-||-----------------|------------------||
|-||o----------------|-----------------o||
|-||--8----8-(8)--8--|------------------||
|-||--8----8-(8)--8--|------------------||
|-||o----------------|-----------------o||
|-||-----------------|-8-8-8-8-8-8-8-8--||


    W          +W           Q.   E +Q   Q    Q.   E +Q   Q    4x
||-----------|------------|----------------|------------------||
||o----------|------------|----------------|-----------------o||
||-----------|------------|-------------0--|-------------0----||
||--2--------|-(2)--------|------0-(0)-----|------0-(0)-------||
||o-0--------|-(0)--------|----------------|-----------------o||
||-----------|------------|-2--------------|-3----------------||


    Q.   E +Q   Q    +W           Q.   E +Q   Q    Q.   E +Q   Q    4x
||-----------------|------------|----------------|------------------||
||o----------------|------------|----------------|-----------------o||
||-----------------|------------|-------------0--|-------------0----||
||--7----7-(7)--7--|-(7)--------|------0-(0)-----|------0-(0)-------||
||o-5----5-(5)--5--|-(5)--------|-2--------------|-3---------------o||
||-----------------|------------|----------------|------------------||


    Q.   E +Q   Q    +W          Q.   E +Q   Q    +W      4x
||-----------------|-----------|----------------|---------||
||o----------------|-----------|----------------|--------o||
||-----------------|-----------|----------------|---------||
||--9----9-(9)--9--|-(9)-------|-4----6-(6)--7--|-(7)-----||
||o-7----7-(7)--7--|-(7)-------|-2----4-(4)--5--|-(5)----o||
||-----------------|-----------|----------------|---------||


                     PM------------|
    Q.   E +Q   Q    E E E E E E E E  4x
||-----------------|------------------||
||o----------------|-----------------o||
||--5----5-(5)--5--|------------------||
||--5----5-(5)--5--|------------------||
||o----------------|-0-0-0-0-0-0-0-0-o||
||-----------------|------------------||


                       PM------------|
      Q.   E +Q   Q    E E E E E E E E  4x
|-||-----------------|------------------||
|-||o----------------|-----------------o||
|-||--8----8-(8)--8--|------------------||
|-||--8----8-(8)--8--|------------------||
|-||o----------------|-----------------o||
|-||-----------------|-8-8-8-8-8-8-8-8--||


    $
    W          +W           Q.   E +Q   Q    Q.   E +Q   Q    4x
||-----------|------------|----------------|------------------||
||o----------|------------|----------------|-----------------o||
||-----------|------------|-------------0--|-------------0----||
||--2--------|-(2)--------|------0-(0)-----|------0-(0)-------||
||o-0--------|-(0)--------|----------------|-----------------o||
||-----------|------------|-2--------------|-3----------------||


                                                        To Coda
    Q.   E +Q   Q    +W           Q.   E +Q   Q    Q.   E +Q   Q    4x
||-----------------|------------|----------------|------------------||
||o----------------|------------|----------------|-----------------o||
||-----------------|------------|-------------0--|-------------0----||
||--7----7-(7)--7--|-(7)--------|------0-(0)-----|------0-(0)-------||
||o-5----5-(5)--5--|-(5)--------|-2--------------|-3---------------o||
||-----------------|------------|----------------|------------------||


    Q.   E +Q   Q    +W           Q.   E +Q   Q    +W      4x
||-----------------|------------|----------------|---------||
||o----------------|------------|----------------|--------o||
||-----------------|------------|----------------|---------||
||--9----9-(9)--9--|-(9)--------|-4----6-(6)--7--|-(7)-----||
||o-7----7-(7)--7--|-(7)--------|-2----4-(4)--5--|-(5)----o||
||-----------------|------------|----------------|---------||


    PM--|             PM--|             PM--|             PM------------|
    E E E E +Q   Q    E E E E +Q   Q    E E E E +Q   Q    E E E E E E E E
||------------------|-----------------|-----------------|-------------------||
||o-----------------|-----------------|-----------------|------------------o||
||------------------|-----------------|-----------------|-------------------||
||--------3-(3)-----|-------3-(3)-----|-------3-(3)-----|-------------------||
||o-3-3-3--------3--|-2-2-2--------2--|-1-1-1--------1--|-0-0-0-0-0-0-0-0--o||
||------------------|-----------------|-----------------|-------------------||


    PM--|             PM--|             PM--|             PM------------|
    E E E E +Q   Q    E E E E +Q   Q    E E E E +Q   Q    E E E E E E E E
||------------------|-----------------|-----------------|-------------------||
||o-----------------|-----------------|-----------------|------------------o||
||------------------|-----------------|-----------------|-------------------||
||--------5-(5)-----|-------5-(5)-----|-------5-(5)-----|-------------------||
||o-5-5-5--------5--|-4-4-4--------4--|-3-3-3--------3--|-2-2-2-2-2-2-2-2--o||
||------------------|-----------------|-----------------|-------------------||


                                                            D.S. al Coda
    PM--|             PM--|             PM--|             PM------------|
    E E E E +Q   Q    E E E E +Q   Q    E E E E +Q   Q    E E E E E E E E
||------------------|-----------------|-----------------|-------------------||
||o-----------------|-----------------|-----------------|------------------o||
||------------------|-----------------|-----------------|-------------------||
||--------7-(7)-----|-------7-(7)-----|-------7-(7)-----|-------------------||
||o-7-7-7--------7--|-6-6-6--------6--|-5-5-5--------5--|-4-4-4-4-4-4-4-4--o||
||------------------|-----------------|-----------------|-------------------||


    &
    Q.   E +Q   Q    +W           Q.   E +Q   Q    Q.   E +Q   Q    4x
||-----------------|------------|----------------|------------------||
||o----------------|------------|----------------|-----------------o||
||-----------------|------------|-------------0--|-------------0----||
||--7----7-(7)--7--|-(7)--------|------0-(0)-----|------0-(0)-------||
||o-5----5-(5)--5--|-(5)--------|-2--------------|-3---------------o||
||-----------------|------------|----------------|------------------||


                                Slowly Q=130
  Q.   E +Q   Q    +W           Q  Q  H          +W
|----------------|------------|-------3--------|-(3)----*|
|----------------|------------|-3-----0--------|-(0)----*|
|----------------|------------|-2--0--0--------|-(0)----*|
|-7----7-(7)--7--|-(7)--------|-0--0--0--------|-(0)----*|
|-5----5-(5)--5--|-(5)--------|-------2--------|-(2)----*|
|----------------|------------|-2--3--3--------|-(3)----*|



Duration Legend
---------------
W - whole; H - half; Q - quarter; E - 8th; S - 16th; T - 32nd; X - 64th; a - acciaccatura
+ - note tied to previous; . - note dotted; .. - note double dotted
Uncapitalized letters represent notes that are staccato (1/2 duration)
Irregular groupings are notated above the duration line
Duration letters will always appear directly above the note/fret number it represents the
duration for.  Duration letters with no fret number below them represent rests.  Multi-
bar rests are notated in the form Wxn, where n is the number of bars to rest for.  Low
melody durations appear below the staff

Tablature Legend
----------------
 h   - hammer-on
 p   - pull-off
 b   - bend
 pb  - pre-bend
 r   - bend release (if no number after the r, then release immediately)
 /\  - slide into or out of (from/to "nowhere")
 s   - legato slide
 S   - shift slide
 - natural harmonic
[n]  - artificial harmonic
n(n) - tapped harmonic
 ~   - vibrato
 tr  - trill
 T   - tap
 TP  - trem. picking
 PM  - palm muting
\n/  - tremolo bar dip; n = amount to dip
 \n  - tremolo bar down
 n/  - tremolo bar up
/n\  - tremolo bar inverted dip
 =   - hold bend; also acts as connecting device for hammers/pulls
 <> - volume swell (louder/softer)
 x   - on rhythm slash represents muted slash
 o   - on rhythm slash represents single note slash

Misc Legend
-----------
 |  - bar
||  - double bar
||o - repeat start
o|| - repeat end
*|  - double bar (ending)
 :  - bar (freetime)
 $  - Segno
 &  - Coda
Tempo markers -  = BPM(8/16=s8/s16), where s8 = swing 8ths, s16 = swing 16ths

Tap to rate this tab
# A B C D E F G H I J K L M N O P Q R S T U V W X Y Z