Song name
# A B C D E F G H I J K L M N O P Q R S T U V W X Y Z

Anthrax - Panic tab

Band:  Anthrax
Album: Fistful of Metal
Song:  Panic

Copyright (c)  (Megaforce) (1984)
Version 1.0 - (07/05/06)

Transcribed By: Steve
Email:          stephen.elvidge1@ntlworld.com


.  - palm mute           /  - slide up to
\  - slide down to       ~  - vibrato
h  - hammer on           b  - Bend
p  - pull off            Suffixes for bend
t  - tap                 f  - full bend    h - half bend
ph - pinched harmonic    q  - quarter bend t - tap bend
                         p  - pre bend
*  - see comment         ^  - Hold bend    r release bend
x  - Stuccatto           ~  - vibrato bend
,  - slight palm mute    () - ghost note, sustained note
"  - tremolo note        <> - harmonic

Tuning E A D G B E

 Intro

 Guitar 1
 [------------PM--------------]
[-------------------------------|
[-------------------------------|
[-------------------------------|
[--121212\111111\101010\999\8-9-|
[-------------------------------|
[-------------------------------|
[Guitar 2
[-------------------------------|
[-------------------------------|
[-------------------------------|
[-9\----------------------------|
[-7\----------------------------|
[-0-----------------------------|
 
 [------------PM--------------]
|------------------------------|
|------------------------------|
|------------------------------|
|-121212\111111\101010\999\8-9-|
|------------------------------|
|------------------------------| Rpt

 Both guitars

|-------------|
|-------------|
|-5---5---5---|
|-5-5-5-5-5-5-|
|---5---5---5-|
|-------------|

 Guitar 1
 [------------PM--------------]
[-------------------------------|
[-------------------------------|
[-------------------------------|
[--121212\111111\101010\999\8-9-|
[-------------------------------|
[-------------------------------|
[Guitar 2
[-------------------------------|
[-------------------------------|
[-------------------------------|
[-2-----------------------------|
[-2-----------------------------|
[-0-----------------------------|

 Guitar 1
 [------------PM--------------]
[-------------------------------|
[-------------------------------|
[-------------------------------|
[--121212\111111\101010\999\8-9-|
[-------------------------------|
[-------------------------------|
[Guitar 2
[-------------------------------|
[-------------------------------|
[-------------------------------|
[-9-9\--------------------------|
[-7-7\--------------------------|
[---0---------------------------| Rpt

 Both guitars

|-------------|
|-------------|
|-5---5---5---|
|-5-5-5-5-5-5-|
|---5---5---5-|
|-------------|

 Guitar 1
 [------------PM--------------]
[-------------------------------|
[-------------------------------|
[-------------------------------|
[--121212\111111\101010\999\8-9-|
[-------------------------------|
[-------------------------------|
[Guitar 2
[-------------------------------|
[-------------------------------|
[-------------------------------|
[-2-2---------------------------|
[-2-2---------------------------|
[-0-0---------------------------|

 Guitar 1
 [------------PM--------------]
[-------------------------------|
[-------------------------------|
[-------------------------------|
[--121212\111111\101010\999\8-9-|
[-------------------------------|
[-------------------------------|
[Guitar 2
[-------------------------------|
[-------------------------------|
[-------------------------------|
[-9-9\--------------------------|
[-7-7\--------------------------|
[--0----------------------------| Rpt

|-------------|
|-------------|
|-5---5---5---|
|-5-5-5-5-5-5-|
|---5---5---5-|
|-------------|

 Main Riff

 
  [----------------------PM-----------------------]
|--------------------------------------------------------------|
|--------------------------------------------------------------|
|--------------------------------------------------5---5---5---|
|--------------------------------------------------5-5-5-5-5-5-|
|----------------------------------------------------5---5---5-|
|-000000000000000000000000000000000000000000000000-------------| Rpt 2 X

 Rpt Main Riff 2 X for verse

 Chorus

|-------------------------------------------|
|-----------7-(7)----------------7-(7)------|
|-------5-4-7-(7)--5-4-------5-4-7-(7)--5-4-|
|-2-(2)-5-5-7-(7)--5-5-2-(2)-5-5-7-(7)--5-5-|
|-0-(0)----------------0-(0)----------------|
|-------------------------------------------|

|-------------------------------------------|
|-----------7-(7)----------------7----(7)---|
|-------5-4-7-(7)--5-4-------5-4-7----(7)---|
|-2-(2)-5-5-7-(7)--5-5-2-(2)-5-5-7----(7)---|
|-0-(0)----------------0-(0)----------------|
|-------------------------------------------|

   [---PM----]     [---PM----]
|-----------------------------------|
|-----------------------------------|
|-------------5\4/7-----------9\7\5-|
|-4-----------5\4/7-----------9\7\5-|
|-2-2-2-2-2-2-3\2/5-5-5-5-5-5-7\5\3-|
|-----------------------------------| Rpt 4 X

 Rpt Verse
 Rpt Chorus

 Drum Fill

|---------------------------|
|---------------------------|
|---------------------------|
|-2-2-----3/4---------------|
|-2-2-----3/4---------------|
|-0-1-----1/2-----0\trem----|


  G                        D#
 Guitar 1
[-----------------------------------------------|
[-----------------------------------------------|
[-12------\10\7/10\7\5/7---/8------\7\5/7\5/8---|
[-----------------------------------------------|
[-----------------------------------------------|
[-----------------------------------------------|
[Guitar 2
[-----------------------------------------------|
[-----------------------------------------------|
[-----------------------------------------------|
[-----------------------------------------------|
[-10------\8-\5/8-\5\3/5---/6-----\5\3/5\3/6----|
[-----------------------------------------------|

  C                          
 Guitar 1
[-----------------------------------------------|
[----------------------------3--3--3----(3)-----|
[-5-/7\5/7-8-7\5-7-8-8/10\8--2--2--2----(2)-----|
[----------------------------0--0--0----(0)-----|
[-----------------------------------------------|
[-----------------------------------------------|
[Guitar 2                           ~~~~~~~~~~~
[-----------------------------------------------|
[----------------------------------13fb---------|
[-----------------------------------------------|
[-----------------------------------------------|
[-3-/5\3/5-6-5\3-5-6-6/8-\6---------------------|
[-----------------------------------------------|


 Guitar solo

   G
   ~~~~~~~~~~                    ~~~     ~~~~~~~~~~~~~
|------------------------------------------------------|
|---------------------------------------13fb-13fb------|
|-12fb-12fb-p10-12p10-----------12brp10----------------|
|---------------------12p10-12-------------------------|
|------------------------------------------------------|
|------------------------------------------------------|

  D#
   ~~~~~~~~~~~~~~~~~~~~~~~                    ~~~~~~~~~~~~
|----15-------------------18-17--15-13-12------------------|
|-18b---18b--18b--18b-18b-----------------15-13b-----------|
|----------------------------------------------------------|
|----------------------------------------------------------|
|----------------------------------------------------------|
|----------------------------------------------------------|

  C
   ~~~          h~~~                                  ~~~~~~~~
|-----10----10-13fb-15p13--------------------------------------|
|-13b----13---------------15-13\11-13-11----11-----------------|
|----------------------------------------12----12-10-12--------|
|--------------------------------------------------------------|
|--------------------------------------------------------------|
|--------------------------------------------------------------|

  D
                  ~~~~~~      ~~~~           ~~~~~
|-------------------------15-18fbr18-17-15----------|
|----11-13-15-18-18fbr-18------------------18fb-----|
|-10------------------------------------------------|
|---------------------------------------------------|
|---------------------------------------------------|
|---------------------------------------------------|



 Harmonised Guitars

  G                           D#                          
 Guitar 1
[---------------------------------------------------------|
[---------------------------------------------------------|
[-3---5/7-5\3\2-3---5/7-5\3\2-----------------------------|
[-----------------------------5---7/8-7-5\3/5---7/8-7-5\3-|
[---------------------------------------------------------|
[---------------------------------------------------------|
[Guitar 2
[---------------------------------------------------------|
[---------------------------------------------------------|
[---------------------------------------------------------|
[-5---7/8-7-5\3/5---7/8-7-5\3\1---3/5\3\1-0-1---3/5\3\1-0-|
[---------------------------------------------------------|
[---------------------------------------------------------|

  C                           D
 Guitar 1
[-------------------------------------------------|
[-----------------------------------------3-3-3-3-|
[-----------------------------------------2-2-2-2-|
[-1---3/5\3\1-0-1---3/5\3\1-0-0-------(5)---------|
[-------------------------------------------------|
[-------------------------------------------------|
[Guitar 2
[-------------------------------------------------|
[-------------------------------------------------|
[-------------------------------------------------|
[-------------------------------------------------|
[-3---5/6-5-3\1/3---5/6-5-3\1/5-------(5)---------|
[-------------------------------------------------|


  G                           D#                          
 Guitar 1
[---------------------------------------------------------|
[---------------------------------------------------------|
[-3---5/7-5\3\2-3---5/7-5\3\2-----------------------------|
[-----------------------------5---7/8-7-5\3/5---7/8-7-5\3-|
[---------------------------------------------------------|
[---------------------------------------------------------|
[Guitar 2
[---------------------------------------------------------|
[---------------------------------------------------------|
[---------------------------------------------------------|
[-5---7/8-7-5\3/5---7/8-7-5\3\1---3/5\3\1-0-1---3/5\3\1-0-|
[---------------------------------------------------------|
[---------------------------------------------------------|
[Guitar 3
[-6---8/108\6\5-6---8/108\6\5\3---5-6-5-3---3---5-6-5-3---|
[-----------------------------------------6-------------6-|
[---------------------------------------------------------|
[---------------------------------------------------------|
[---------------------------------------------------------|
[---------------------------------------------------------|


  C                           D
 Guitar 1                              ~~~~~~~~~~~
[-------------------------------------------------|
[-------------------------------------------------|
[-------------------------------------------------|
[-1---3/5\3\1-0-1---3/5\3\1-0-0-------(5)---------|
[-------------------------------------------------|
[-------------------------------------------------|
[Guitar 2
[-------------------------------------------------|
[-------------------------------------------------|
[-------------------------------------------------|
[-------------------------------------------------|
[-3---5/6-5-3\1/3---5/6-5-3\1/5-------(5)---------|
[-------------------------------------------------|
[Guitar 3
[-------------------------------------------------|
[-4---6/8-6\4\3-4---6/8-6\4\3-3-------(3)---------|
[-------------------------------------------------|
[-------------------------------------------------|
[-------------------------------------------------|
[-------------------------------------------------|

  G
 Guitar 1
     t       t       t       t       t       t       t       t
[-------------------------------------------------------------------|
[-8-11p10p8-11p10p8-11p10p8-11p10p8-11p10p8-11p10p8-11p10p8-11p10p8-|
[-------------------------------------------------------------------|
[-------------------------------------------------------------------|
[-------------------------------------------------------------------|
[-------------------------------------------------------------------|
[Guitar 2
[    t       t       t       t       t       t       t       t
[-------------------------------------------------------------------|
[-1115p13p1115p13p1115p13p1115p13p1115p13p1115p13p1115p13p1115p13p11|
[-------------------------------------------------------------------|
[-------------------------------------------------------------------|
[-------------------------------------------------------------------|
[-------------------------------------------------------------------| Rpt

  D#
 Guitar 1
     t       t       t       t       t       t       t       t
[-------------------------------------------------------------------|
[-------------------------------------------------------------------|
[-8-12p10p8-12p10p8-12p10p8-12p10p8-12p10p8-12p10p8-12p10p8-12p10p8-|
[-------------------------------------------------------------------|
[-------------------------------------------------------------------|
[-------------------------------------------------------------------|
[Guitar 2
[    t       t       t       t       t       t       t       t
[-------------------------------------------------------------------|
[-8-10p11p8-10p11p8-10p11p8-10p11p8-10p11p8-10p11p8-10p11p8-10p11p8-|
[-------------------------------------------------------------------|
[-------------------------------------------------------------------|
[-------------------------------------------------------------------|
[-------------------------------------------------------------------| Rpt

  C
 Guitar 1
    t     t     t     t     t     t     t     t
[---------------------------------------------------|
[---------------------------------------------------|
[-5-8p7p5-8p7p5-8p7p5-8p7p5-8p7p5-8p7p5-8p7p5-8p7p5-|
[---------------------------------------------------|
[---------------------------------------------------|
[---------------------------------------------------|
[Guitar 2
[   t     t     t     t     t     t     t     t
[---------------------------------------------------|
[-4-8p6p4-8p6p4-8p6p4-8p6p4-8p6p4-8p6p4-8p6p4-8p6p4-|
[---------------------------------------------------|
[---------------------------------------------------|
[---------------------------------------------------|
[---------------------------------------------------|

  C
 Guitar 1
    t     t     t     t     t     t     t     t
[-------------------------------------------------------------------|
[-------------------------------------------------------------------|
[-5-8p7p5-8p7p5-8p7p5-8p7p5-8p7p5-8p7p5-8p7p5-8p7p5/7-------(7)-----|
[-------------------------------------------------------------------|
[-------------------------------------------------------------------|
[-------------------------------------------------------------------|
[Guitar 2
[   t     t     t     t     t     t     t     t
[-------------------------------------------------------------------|
[-4-8p6p4-8p6p4-8p6p4-8p6p4-8p6p4-8p6p4-8p6p4-8p6p4\3-------(3)-----|
[-------------------------------------------------------------------|
[-------------------------------------------------------------------|
[-------------------------------------------------------------------|
[-------------------------------------------------------------------|

 Rpt above

 Guitar solo(backing is chorus)

   ~~~~phphph~~[----PM---]~~~~                        ~~~~
|------------------------------------------------------------------|
|-10-------10------------------------------------------------------|
|-9b---7--------------------------------------7---7---9b-trem dive-|
|--------9-----9-7------------------------7-9---9---9--------------|
|------------------9-8-5/7--------5---5/9--------------------------|
|-----------------------------7\----7------------------------------|

   ~~~~~   ~~~~~~    h           ~~~~~~    h       h
|----------------12-15-15-14-12--------------------------------------|
|-15fb--15-15b------------------15fb---12-15p14p12-15p14p12-15-14-12-|
|--------------------------------------------------------------------|
|--------------------------------------------------------------------|
|--------------------------------------------------------------------|
|--------------------------------------------------------------------|

           h h h h
|-----------------------------------|
|-10-------3-3-3-3-0-trem dive------|
|----12-9---------------------------|
|-----------------------------------|
|-----------------------------------|
|-----------------------------------|

 Rpt Verse 2 X

|---------------------|
|---------------------|
|-5---5---5-----------|
|-5-5-5-5-5-5-9999-\x-|
|---5---5---5-7777-\x-|
|-------------0000--x-|
 


END

Tap to rate this tab
 
# A B C D E F G H I J K L M N O P Q R S T U V W X Y Z