Song name
# A B C D E F G H I J K L M N O P Q R S T U V W X Y Z

Anthrax - Sects tab

#----------------------------------PLEASE NOTE---------------------------------#
#This file is the author's own work and represents their interpretation of the #
#song. You may only use this file for private study, scholarship, or research. #
#------------------------------------------------------------------------------#

SECTS
As recorded by Anthrax
(From the 1991 EP ATTACK OF THE KILLER B'S)

Transcribed by Mike Sheehan
	

Words and Music by Norbert Krief and Bernie Bonvoisin

E5
0 2 2 x x x
	
F5
1 3 x x x x
	
F#5
2 4 x x x x
	
G5
3 5 5 x x x

A5
x 0 2 2 x x
	
B5
x 2 4 4 x x
	
C5
x 3 5 5 x x
	
C#5
x 4 6 6 x x

D5
x 5 7 7 x x
	
E5VII
x 7 9 9 x x
	
B5XIV
x 14 16 x x x

Gtr I (E A D G B E) - 'Scott Ian'
Gtr II (E A D G B E) - 'Dan Spitz'

   Intro
    Q=126                                             Q=272
    E5VII             D5                              E5VII
   4/4
    Gtr I
    S S E Q  H     3x S S +E  +H.        +W           Q  Q  H
||-----------------||------------------|------------|------------|
||o---------------o||------------------|------------|------------|
||-----------------||-7-7-(7)-(7)------|-(7)--------|-9----------|
||--9-9------------||-7-7-(7)-(7)------|-(7)--------|-9----------|
||o-7-7-----------o||-5-5-(5)-(5)------|-(5)--------|-7----------|
||-----------------||------------------|------------|------------|


  N.C.                          E5VII        D5
  Gtr I
                                   PM------|
  Wx6           W               Q  E E E E E E   +H     E E E E  4x
|------------|--------------||-----------------|-----------------||
|------------|--------------||o----------------|----------------o||
|------------|--------------||--9------------7-|-(7)-------------||
|------------|--------------||--9------------7-|-(7)-------------||
|------------|--------------||o-7------------5-|-(5)------------o||
|------------|-12\----------||-----0-0-0-0-0---|--------5h7p5h7--||
|
| Gtr II
| W             H     H         W                 W              4x
|------------|--------------||-----------------|-----------------||
|------------|--------------||o----------------|----------------o||
|------------|--------------||-----------------|-----------------||
|------------|--------------||-----------------|-----------------||
|------------|--------2/----||o----------------|----------------o||
|------------|--------------||-----------------|-----------------||


   Verse
    E5VII        D5                   E5VII        D5
    Gtr I
       PM------|                         PM------|
    Q  E E E E E E   +H     E E E E   Q  E E E E E E   +H     E E E E
||-----------------|----------------|----------------|------------------||
||o----------------|----------------|----------------|-----------------o||
||--9------------7-|-(7)------------|-9------------7-|-(7)--------------||
||--9------------7-|-(7)------------|-9------------7-|-(7)--------------||
||o-7------------5-|-(5)------------|-7------------5-|-(5)-------------o||
||-----0-0-0-0-0---|--------5h7p5h7-|----0-0-0-0-0---|--------5h7p5h7---||


 Chorus
  $
  B5
  Q  Q  Q  E E   +E  E Q  Q  E E   +E  E Q  Q  E E
|--------------|-----------------|-----------------|
|--------------|-----------------|-----------------|
|-4--4--4----4-|-(4)-4-4--4----4-|-(4)-4-4--4----4-|
|-4--4--4----4-|-(4)-4-4--4----4-|-(4)-4-4--4----4-|
|-2--2--2--0-2-|-(2)-2-2--2--0-2-|-(2)-2-2--2--0-2-|
|--------------|-----------------|-----------------|


                G5               C5               D5
  +E  E Q  Q.   E   +Q   Q  Q.   E   +H.      +E  E
|-----------------|----------------|----------------|
|-----------------|----------------|----------------|
|-(4)-4-4--4------|--------------5-|-(5)------(5)-7-|
|-(4)-4-4--4----5-|-(5)--5--5----5-|-(5)------(5)-7-|
|-(2)-2-2--2----5-|-(5)--5--5----3-|-(3)------(3)-5-|
|---------------3-|-(3)--3--3------|----------------|


                                      To Coda
  +W           +W           +W           +W
|------------|------------|------------|---------||
|------------|------------|------------|---------||
|-(7)--------|-(7)--------|-(7)--------|-(7)-----||
|-(7)--------|-(7)--------|-(7)--------|-(7)-----||
|-(5)--------|-(5)--------|-(5)--------|-(5)-----||
|------------|------------|------------|---------||


   Verse
                                                          D.S. al Coda
    E5VII        D5                   E5VII        D5
       PM------|                         PM------|
    Q  E E E E E E   +H     E E E E   Q  E E E E E E   +H     E E E E   3x
||-----------------|----------------|----------------|------------------||
||o----------------|----------------|----------------|-----------------o||
||--9------------7-|-(7)------------|-9------------7-|-(7)--------------||
||--9------------7-|-(7)------------|-9------------7-|-(7)--------------||
||o-7------------5-|-(5)------------|-7------------5-|-(5)-------------o||
||-----0-0-0-0-0---|--------5h7p5h7-|----0-0-0-0-0---|--------5h7p5h7---||


   Bridge
    &
                              E5VII
    E E E E E E E E   E E E E Q  Q   3x E E E E E E E E
||------------------|----------------||------------------|
||o-----------------|---------------o||------------------|
||------------------|---------9--9---||------------------|
||--------------0h5h|=7p5-----9--9---||-------------0h5h=|
||o-------0h5h7-----|-----7---7--7--o||-------0h5h7------|
||--0h5h7-----------|----------------||-0h5h7------------|


                                       Q=180
          D5                     C#5C5    B5
                              |--3--|
  E E E E H      +W           H  H  H     E E E E E E E E
|--------------|------------|----------||-----------------|
|--------------|------------|----------||-----------------|
|---------7----|-(7)--------|-7--6--5--||-----------------|
|-7p5-----7----|-(7)--------|-7--6--5--||-4-4-4-4-4-4-4-4-|
|-----7---5----|-(5)--------|-5--4--3--||-2-2-2-2-2-2-2-2-|
|--------------|------------|----------||-----------------|


    E E E E E E E E   E E E E E E E E
||------------------|------------------||
||o-----------------|-----------------o||
||------------------|------------------||
||--4-4-4-4-4-4-4-4-|-4-4-4-4-4-4-4-4--||
||o-2-2-2-2-2-2-2-2-|-2-2-2-2-2-2-2-2-o||
||------------------|------------------||


                    B5XIV
  E E E E E E E E    E  E  E  E  E  E  E  E
|-----------------|--------------------------|
|-----------------|--------------------------|
|-----------------|--------------------------|
|-4-4-4-4-4-4-4-4S|=16-16-16-16-16-16-16-16--|
|-2-2-2-2-2-2-2-2S|=14-14-14-14-14-14-14-14--|
|-----------------|--------------------------|


                            E5VII
   E  E  E  E  E  E  E  E   E E E E E E E E
|-------------------------|-----------------|
|-------------------------|-----------------|
|-------------------------|-----------------|
|-16-16-16-16-16-16-16-16S|=9-9-9-9-9-9-9-9-|
|-14-14-14-14-14-14-14-14S|=7-7-7-7-7-7-7-7-|
|-------------------------|-----------------|


                    C5
  E E E E E E E E   E E E E E E E E
|-----------------|-----------------|
|-----------------|-----------------|
|-----------------|-----------------|
|-9-9-9-9-9-9-9-9S|=5-5-5-5-5-5-5-5-|
|-7-7-7-7-7-7-7-7S|=3-3-3-3-3-3-3-3-|
|-----------------|-----------------|


                    G5                F#5     F5        E5
                    PM------------------------------------------------|
  E E E E E E E E   E E E E E E E E   E E E E E E E E   E E E E E E E E
|-----------------|-----------------|-----------------|-----------------|
|-----------------|-----------------|-----------------|-----------------|
|-----------------|-----------------|-----------------|-----------------|
|-5-5-5-5-5-5-5-5-|-----------------|-----------------|-----------------|
|-3-3-3-3-3-3-3-3-|-5-5-5-5-5-5-5-5-|-4-4-4-4-3-3-3-3-|-2-2-2-2-2-2-2-2-|
|-----------------|-3-3-3-3-3-3-3-3-|-2-2-2-2-1-1-1-1-|-0-0-0-0-0-0-0-0-|


                    E5VII                               C5
  PM------------|
  E E E E E E E E   E E E E E E E E   E E E E E E E E   E E E E E E E E
|-----------------|-----------------|-----------------|-----------------|
|-----------------|-----------------|-----------------|-----------------|
|-----------------|-----------------|-----------------|-----------------|
|-----------------|-9-9-9-9-9-9-9-9-|-9-9-9-9-9-9-9-9S|=5-5-5-5-5-5-5-5-|
|-2-2-2-2-2-2-2-2-|-7-7-7-7-7-7-7-7-|-7-7-7-7-7-7-7-7S|=3-3-3-3-3-3-3-3-|
|-0-0-0-0-0-0-0-0-|-----------------|-----------------|-----------------|


                                              H=H
                      G5              F#5     F5
  E E E E E E E E   E E E E E E E E   E E E E E E E E   W
|-----------------|-----------------|-----------------|------|
|-----------------|-----------------|-----------------|------|
|-----------------|-----------------|-----------------|------|
|-5-5-5-5-5-5-5-5-|-----------------|-----------------|------|
|-3-3-3-3-3-3-3-3-|-5-5-5-5-5-5-5-5-|-4-4-4-4-3-3-3-3-|------|
|-----------------|-3-3-3-3-3-3-3-3-|-2-2-2-2-1-1-1-1-|-0----|


                  Guitar Solo
                   Q=272
       D5 C#5C5    B5
  Gtr I
  +Q   Q  Q  Q     Q   Q    E  E E E   +Q    Q    E  E E E   +Q   Q   E  E E E
|---------------||-------------------|---------------------|-------------------|
|---------------||-------------------|---------------------|-------------------|
|---------------||-------------------|---------------------|-------------------|
|------7--6--5--||-4---4----4--4-4-4-|-(4)---4----4--4-4-4-|-(4)--4---4--4-4-4-|
|------5--4--3--||-2---2----2--2-2-2-|-(2)---2----2--2-2-2-|-(2)--2---2--2-2-2-|
|-(0)-----------||-------------------|---------------------|-------------------|
|
| Gtr II
|                      ~~~~~~~~              ~~~~~~~~                      PM|
|  H      Q  Q     Q  +Q   +Q.     E   +Q   +Q   +Q.     E   +Q   E E E  E E E
|---------------||-------------------|---------------------|-------------------|
|---------------||-------------------|---------------------|-------------------|
|---------------||-----------------7-|-(7)--(7)--(7)-------|-------------------|
|------------2S=||=9--(9)--(9)-------|-------------------9-|-(9)--7------------|
|---------------||-------------------|---------------------|--------9-7--------|
|---------------||-------------------|---------------------|------------10-8-7-|


  +Q     Q   E   E E E   +Q      Q      E  E E E
|----------------------|-------------------------|
|----------------------|-------------------------|
|----------------------|-------------------------|
|-(4)----4---4---4-4-4-|-(4)-----4------4--4-4-4-|
|-(2)----2---2---2-2-2-|-(2)-----2------2--2-2-2-|
|----------------------|-------------------------|
|
|     ~~
|  E  Q.    +E   E Q      Q     +E  +E  Q.     E
|----------------------|-------------------------|
|----------------------|-------------------------|
|----------------------|-------------------------|
|--9--7-----(7)\-------|-------------------------|
|------------------2S==|==7b8===(7)r(7)-5\-------|
|----------------------|-------------------------|


  +Q      Q    E  E E E   +Q     Q    E  E E E
|-----------------------|----------------------|
|-----------------------|----------------------|
|-----------------------|----------------------|
|-(4)-----4----4--4-4-4-|-(4)----4----4--4-4-4-|
|-(2)-----2----2--2-2-2-|-(2)----2----2--2-2-2-|
|-----------------------|----------------------|
|
|              ~~~                    ~~~~
|  Q     +Q    Q    Q      H         +Q    E E
|-----------------------|----------------------|
|-----------------------|-10b12-----(10)-------|
|--9b11--(9)--[7]-------|--------------------7-|
|-----------------------|----------------------|
|-----------------------|----------------------|
|-----------------------|----------------------|


                     E5VII
  +Q      Q    E E E E    +Q      Q     E E  E      E
|----------------------|-------------------------------|
|----------------------|-------------------------------|
|----------------------|-------------------------------|
|-(4)-----4----4-4-4-9-|--(9)-----9-----9-9--9------9--|
|-(2)-----2----2-2-2-7-|--(7)-----7-----7-7--7------7--|
|----------------------|-------------------------------|
|
|  Q     +Q    H           E   E  E  E  E E  E     +E
|----------------------|------------12-----------------|
|----------------------|-/12--12-12----12--------------|
|--9b11--(9)--16-------|--------------------14b16-(14)-|
|----------------------|-------------------------------|
|----------------------|-------------------------------|
|----------------------|-------------------------------|


                                  C5
  +Q      Q          E E        E  E   +Q      Q      E  E  E E
|------------------------------------|--------------------------|
|------------------------------------|--------------------------|
|------------------------------------|--------------------------|
|-(9)-----9----------9-9--------9--5-|-(5)-----5------5--5--5-5-|
|-(7)-----7----------7-7--------7--3-|-(3)-----3------3--3--3-3-|
|------------------------------------|--------------------------|
|
|  E   E  E     +E   Q    a     E  E    E   E  Q      E  E  Q
|-12--12-----------------------12-12-|-12--12--------12-12-12---|
|-12--12------------12---------12-12-|-12--12--------12-12-12---|
|--------14b16-(14)------14b16-------|--------14b16-------------|
|------------------------------------|--------------------------|
|------------------------------------|--------------------------|
|------------------------------------|--------------------------|


                           G5                               F#5
  +Q    Q     E      E   E E          +Q   Q   E      E   E  E
|----------------------------|---------------------------------|
|----------------------------|---------------------------------|
|----------------------------|---------------------------------|
|-(5)---5-----5------5---5---|---------------------------------|
|-(3)---3-----3------3---3-5-|--------(5)--5---5------5---5--4-|
|--------------------------3-|--------(3)--3---3------3---3--2-|
|
|  Q    E  E  E     +E   Q      a      H       E     +E   E  E
|-12---12-12-----------------|---------------------------------|
|-12---12-12-----------------|--------15--------------------15-|
|------------14b16r(14)-12---|-14b16r(14)-----14b16-(14)-12----|
|----------------------------|---------------------------------|
|----------------------------|---------------------------------|
|----------------------------|---------------------------------|


            F5          E5
                                   PM------------|
   +Q.      E +Q.       E   +Q     E E   E     E E   E
|-------------------------|-----------------------------|
|-------------------------|-----------------------------|
|-------------------------|-----------------------------|
|-------------------------|-----------------------------|
|--(4)------3-(3)-------2-|-(2)----------------------2--|
|--(2)------1-(1)-------0-|-(0)----0-0---0-----0-0---0--|
|
|  +H.              +E  E    E  Q.      +Q.         +E
|-------------------------|-----------------------------|
|-(15)b17----------(15)---|-----------------------------|
|-------------------------|-----------------------------|
|-------------------------|-----------------------------|
|-------------------------|-15p12------(12)b13-----(12)-|
|-------------------------|-----------------------------|


                     E5VII
       PM---------|
  +Q   E E   E  E  E  E   +Q          Q         E  E  E  E
|-----------------------|----------------------------------|
|-----------------------|----------------------------------|
|-----------------------|----------------------------------|
|---------------------9-|-(9)---------9---------9--9--9--9-|
|-(2)-----------------7-|-(7)---------7---------7--7--7--7-|
|-(0)--0-0---0--0--0----|----------------------------------|
|
|            ~~~~
|  H        +Q     E  E    E   E     +S   S  E  E  E  E  E
|-----------------------|-------------------------12-12-12-|
|-----------------------|----------------------12-12-12-12-|
|-----------------------|-12--14b16r(14)p12----------------|
|-14-------(14)---------|-------------------14-------------|
|-----------------13-14-|----------------------------------|
|-----------------------|----------------------------------|


                        C5
  +Q      Q     E  E  E  E   +Q        Q     E     E  E  E
|--------------------------|-------------------------------|
|--------------------------|-------------------------------|
|--------------------------|-------------------------------|
|-(9)-----9-----9--9--9--5-|-(5)-------5-----5-----5--5--5-|
|-(7)-----7-----7--7--7--3-|-(3)-------3-----3-----3--3--3-|
|--------------------------|-------------------------------|
|
|  E   E  E  E  E  E  E  E    E     E  E  E  E     E  E  E
|-12--12-12-12-12-12-12-12-|-------12-12-12-------12-12-12-|
|-12--12-12-12-12-12-12-12-|-------12-12-12-------12-12-12-|
|--------------------------|-14b16----------14b16----------|
|--------------------------|-------------------------------|
|--------------------------|-------------------------------|
|--------------------------|-------------------------------|


                             G5                            F#5
  +Q        Q     E     E  E  E          +Q   Q    E  E  E  E
|-------------------------------|-----------------------------|
|-------------------------------|-----------------------------|
|-------------------------------|-----------------------------|
|-(5)-------5-----5-----5--5----|-----------------------------|
|-(3)-------3-----3-----3--3--5-|--------(5)--5----5--5--5--4-|
|-----------------------------3-|--------(3)--3----3--3--3--2-|
|
|  E     E  E  E  E     E  E  E    a      H       +Q     E  E
|----------12-------------------|-----------------------------|
|-------12----12-------12-------|--------15----------------15-|
|-14b16----------14b16----14-12-|-14b16r(14)-----(14)---12----|
|-------------------------------|-----------------------------|
|-------------------------------|-----------------------------|
|-------------------------------|-----------------------------|


             F5       D5
   +Q.       E  +Q.    E   +W
|------------------------|-----------------------------------|
|------------------------|-----------------------------------|
|------------------------|-----------------------------------|
|----------------------7-|-(7)-------------------------------|
|--(4)-------3--(3)----5-|-(5)-------------------------------|
|--(2)-------1--(1)------|-----------------------------------|
|
|         ~~~~~~~~~~
|                                  |--3--|  |--3--|  |--3--|
|  +Q    +Q     +Q.    E    E   E  E  E  E  E  E  E  E  E  E
|---------------------12-|-15--12----------------------------|
|-(15)--(15)---(15)------|--------14p12-12-------------------|
|------------------------|-----------------14p12p11-------11-|
|------------------------|--------------------------14-12----|
|------------------------|-----------------------------------|
|------------------------|-----------------------------------|


                                        Verse
                                         E5VII                           C5
  +W                                      Q   Q  H           H      Q  E E
|-------------------------------------||-------------------|---------------|
|-------------------------------------||-------------------|---------------|
|-------------------------------------||-------------------|---------------|
|-(7)---------------------------------||--9----------------|-------------5-|
|-(5)---------------------------------||--7----------------|-------------3-|
|-------------------------------------||-------------------|---------------|
|
|                                         ~~~
|  |--3--|  |--3--|  |--3--|  |--3--|
|  E  E  E  E  E  E  E  E  E  E  E  E     H.         +Q      E E Q  H
|-------------------------------------||-------------------|---------------|
|-16p14p12----------------------------||-------------------|---------------|
|----------14p12p11-------------------||-------------------|---------------|
|-------------------14p12p11----------||-------------------|---------------|
|----------------------------14p12p10-||-------------------|---------------|
|-------------------------------------||-12---------(12)\--|-0-------------|


                            G5                F#5         F5        E5
  +E  E Q  H      H    Q  E E   +E  E Q  Q  E E   +E  E E E +E  E E E
|---------------|-------------|-----------------|---------------------|
|---------------|-------------|-----------------|---------------------|
|---------------|-------------|-----------------|---------------------|
|-(5)-----------|-------------|-----------------|---------------------|
|-(3)-----------|-----------5-|-(5)-----------4-|-(4)-----3-(3)-----2-|
|---------------|-----------3-|-(3)-----------2-|-(2)-----1-(1)-----0-|


                            E5VII                         C5
  +E  E Q  H      H    Q  E E   +E  E Q  H      H    Q  E E
|---------------|-------------|---------------|-------------|
|---------------|-------------|---------------|-------------|
|---------------|-------------|---------------|-------------|
|---------------|-----------9-|-(9)-----------|-----------5-|
|-(2)-----------|-----------7-|-(7)-----------|-----------3-|
|-(0)-----------|-------------|---------------|-------------|


                            G5                F#5         F5        E5
  +E  E Q  H      H    Q  E E   +E  E Q  Q  E E   +E  E E E +E  E E E
|---------------|-------------|-----------------|---------------------|
|---------------|-------------|-----------------|---------------------|
|---------------|-------------|-----------------|---------------------|
|-(5)-----------|-------------|-----------------|---------------------|
|-(3)-----------|-----------5-|-(5)-----------4-|-(4)-----3-(3)-----2-|
|---------------|-----------3-|-(3)-----------2-|-(2)-----1-(1)-----0-|


                            E5VII                         C5
  +W           +W           Q  Q  E E E E   +Q   Q  E E E E
|------------|------------|---------------|-----------------|
|------------|------------|---------------|-----------------|
|------------|------------|---------------|-----------------|
|------------|------------|-9--9--9-9-9-9-|-(9)--9--9-9-9-5-|
|-(2)--------|-(2)--------|-7--7--7-7-7-7-|-(7)--7--7-7-7-3-|
|-(0)--------|-(0)--------|---------------|-----------------|


                                  G5                F#5       F5      E5
  +Q   Q  E E E E   +Q   Q  E E E E   +Q   Q  E E E E   +Q.   E +Q.   E
|-----------------|-----------------|-----------------|-----------------|
|-----------------|-----------------|-----------------|-----------------|
|-----------------|-----------------|-----------------|-----------------|
|-(5)--5--5-5-5-5-|-(5)--5--5-5-5---|-----------------|-----------------|
|-(3)--3--3-3-3-3-|-(3)--3--3-3-3-5-|-(5)--5--5-5-5-4-|-(4)---3-(3)---2-|
|-----------------|---------------3-|-(3)--3--3-3-3-2-|-(2)---1-(1)---0-|


                                    E5VII                               C5
       PM------|          PM------|
  +Q   E E E E E E   +Q   E E E E E E   +Q   Q  E E E E   +Q   Q  E E E E
|------------------|------------------|-----------------|-----------------|
|------------------|------------------|-----------------|-----------------|
|------------------|------------------|-----------------|-----------------|
|------------------|----------------9-|-(9)--9--9-9-9-9-|-(9)--9--9-9-9-5-|
|-(2)------------2-|-(2)------------7-|-(7)--7--7-7-7-7-|-(7)--7--7-7-7-3-|
|-(0)--0-0-0-0-0-0-|-(0)--0-0-0-0-0---|-----------------|-----------------|


                                  G5                F#5       F5      D5
  +Q   Q  E E E E   +Q   Q  E E E E   +Q   Q  E E E E   +Q.   E +Q.   E
|-----------------|-----------------|-----------------|-----------------|
|-----------------|-----------------|-----------------|-----------------|
|-----------------|-----------------|-----------------|-----------------|
|-(5)--5--5-5-5-5-|-(5)--5--5-5-5---|-----------------|---------------7-|
|-(3)--3--3-3-3-3-|-(3)--3--3-3-3-5-|-(5)--5--5-5-5-4-|-(4)---3-(3)---5-|
|-----------------|---------------3-|-(3)--3--3-3-3-2-|-(2)---1-(1)-----|


  +W           +W           +W           +W
|------------|------------|------------|--------|
|------------|------------|------------|--------|
|------------|------------|------------|--------|
|-(7)--------|-(7)--------|-(7)--------|-(7)----|
|-(5)--------|-(5)--------|-(5)--------|-(5)----|
|------------|------------|------------|--------|


    E5VII        D5                   E5VII        D5
       PM------|                         PM------|
    Q  E E E E E E   +H     E E E E   Q  E E E E E E   +H     E E E E
||-----------------|----------------|----------------|------------------||
||o----------------|----------------|----------------|-----------------o||
||--9------------7-|-(7)------------|-9------------7-|-(7)--------------||
||--9------------7-|-(7)------------|-9------------7-|-(7)--------------||
||o-7------------5-|-(5)------------|-7------------5-|-(5)-------------o||
||-----0-0-0-0-0---|--------5h7p5h7-|----0-0-0-0-0---|--------5h7p5h7---||


    E5VII
    Gtr I
       PM-------------------------|
    Q  E E E E E  E        E  E E E E E   E   E
||---------------------|------------------------|
||o--------------------|------------------------|
||--9------------------|------------------------|
||--9------------------|------------------------|
||o-7------------------|------------------------|
||-----0-0-0-0-0--0----|---0--0-0-0-5h7p==5h==7-|
|
|   Gtr II
|                          ~~~~
|   H      Q   E  E       +H.            +Q
||---------------12----|-(12)-----------(12)\---|
||o--------------15b17-|-(15)-----------(15)\---|
||---------------------|------------------------|
||---------------------|------------------------|
||o--------------------|------------------------|
||---------------------|------------------------|


     PM-------------------------|
  Q  E E E E E  E        E  E E E E E   E   E
|--------------------|--------------------------||
|--------------------|-------------------------o||
|-9------------------|--------------------------||
|-9------------------|--------------------------||
|-7------------------|-------------------------o||
|----0-0-0-0-0--0----|---0--0-0-0-5h7p==5h==7---||
|
|                        ~~~~
| H      Q   E  E       +H.            +Q
|--------------12----|-(12)-----------(12)\-----||
|--------------15b17-|-(15)-----------(15)\----o||
|--------------------|--------------------------||
|--------------------|--------------------------||
|--------------------|-------------------------o||
|--------------------|--------------------------||


 Outro
  D5                            B5
  Gtr I
  Q.   E +Q   Q    +W           Q.   E +Q   Q
|----------------|------------|----------------|
|----------------|------------|----------------|
|-7----7-(7)--7--|-(7)--------|-4----4-(4)--4--|
|-7----7-(7)--7--|-(7)--------|-4----4-(4)--4--|
|-5----5-(5)--5--|-(5)--------|-2----2-(2)--2--|
|----------------|------------|----------------|


               A5
  +W           Q.   E +Q   Q    +W
|------------|----------------|--------|
|------------|----------------|--------|
|-(4)--------|-2----2-(2)--2--|-(2)----|
|-(4)--------|-2----2-(2)--2--|-(2)----|
|-(2)--------|-0----0-(0)--0--|-(0)----|
|------------|----------------|--------|


  E5
  Gtr I
  W               +W
|---------------:-------------------------:
|---------------:-------------------------:
|---------------:-------------------------:
|-2-------------:-(2)---------------------:
|-2-------------:-(2)---------------------:
|-0-------------:-(0)---------------------:
|
| Gtr II
|         ~~~
| H      +H        E  E E E  E  Q     +E
|---------------:--3--0-------------------:
|---------------:-------3-0-[0]-----------:
|-2b4----(2)----:---------------2pb4r=(2)-:
|---------------:-------------------------:
|---------------:-------------------------:
|---------------:-------------------------:


  H.=H
  +W                 +W                          Q  Q  H
|------------------:---------------------------:------------*|
|------------------:---------------------------:------------*|
|------------------:---------------------------:------------*|
|-(2)--------------:-(2)-----------------------:-2----------*|
|-(2)--------------:-(2)-----------------------:-2----------*|
|-(0)--------------:-(0)-----------------------:-0----------*|
|
|                                          \4
|  E  E E E E Q.     +Q      +Q   +E  +E  +Q     Q  Q  H
|------------------:---------------------------:------------*|
|------------------:---------------------------:------------*|
|------------------:---------------------------:------------*|
|--2--0---0--------:---------------------------:-2----------*|
|-------2---2------:---------------------------:-2----------*|
|-------------3----:-(3)b5===(3)--(3)r(3)-(3)--:-0----------*|



Duration Legend
---------------
W - whole; H - half; Q - quarter; E - 8th; S - 16th; T - 32nd; X - 64th; a - acciaccatura
+ - note tied to previous; . - note dotted; .. - note double dotted
Uncapitalized letters represent notes that are staccato (1/2 duration)
Irregular groupings are notated above the duration line
Duration letters will always appear directly above the note/fret number it represents the
duration for.  Duration letters with no fret number below them represent rests.  Multi-
bar rests are notated in the form Wxn, where n is the number of bars to rest for.  Low
melody durations appear below the staff

Tablature Legend
----------------
 h   - hammer-on
 p   - pull-off
 b   - bend
 pb  - pre-bend
 r   - bend release (if no number after the r, then release immediately)
 /\  - slide into or out of (from/to "nowhere")
 s   - legato slide
 S   - shift slide
 - natural harmonic
[n]  - artificial harmonic
n(n) - tapped harmonic
 ~   - vibrato
 tr  - trill
 T   - tap
 TP  - trem. picking
 PM  - palm muting
\n/  - tremolo bar dip; n = amount to dip
 \n  - tremolo bar down
 n/  - tremolo bar up
/n\  - tremolo bar inverted dip
 =   - hold bend; also acts as connecting device for hammers/pulls
 <> - volume swell (louder/softer)
 x   - on rhythm slash represents muted slash
 o   - on rhythm slash represents single note slash

Misc Legend
-----------
 |  - bar
||  - double bar
||o - repeat start
o|| - repeat end
*|  - double bar (ending)
 :  - bar (freetime)
 $  - Segno
 &  - Coda
Tempo markers -  = BPM(8/16=s8/s16), where s8 = swing 8ths, s16 = swing 16ths

Tap to rate this tab
# A B C D E F G H I J K L M N O P Q R S T U V W X Y Z