Anthrax - What Doesnt Die tab

Riff 1
eb|----------------------------------------------|
Bb|----------------------------------------------|
Gb|----------------------------------------------|
Db|----------------------------------------------|
Ab|----------------------------------------------|
Db|-0000-0--0000000000-0----0000-0--0000000000-0-|
    ****    **********      ****    **********
eb|----------------------------------------------|
Bb|----------------------------------------------|
Gb|----------------------------------------------|
Db|----------------------------------------------|
Ab|--------------------------------------------0-|
Db|-0000-0--0000000000-0----0000-0--0000000000-0-|
    ****    **********      ****    **********


Riff 2
eb|-----------------------------------|
Bb|-----------------------------------|
Gb|-----------------------------------|
Db|-----------------------------------|
Ab|-5---------------------------------|
Db|-5-5-5-5-5-5-5555-5-5-5-5-5-5-5555-|
      * * * * * **** * * * * * * ****
   "First in..."
eb|----------------------------------|
Bb|----------------------------------|
Gb|----------------------------------|
Db|----------------------------------|
Ab|--------------------5-5-5-6-6-5-3-|
Db|-5-5-5-5-5-5-5555-5-5-5-5-6-6-5-3-|
    * * * * * * **** *
   "It's been picked..."


Riff 3
eb|---------------------------------|
Bb|---------------------------------|
Gb|---------------------------------|
Db|---------------------------------|
Ab|-5-------------------------------|
Db|-5-5-5-5-5-5-5-5-5-5-5-5-6-6-5-3-|
      * * * * * * * * * * * * * * *
   "Crusading for..."
eb|---------------------------------|
Bb|---------------------------------|
Gb|---------------------------------|
Db|---------------------------------|
Ab|-------------------5-5-5-6-6-5-3-|
Db|-5-5-5-5-5-5-5-5-5-5-5-5-6-6-5-3-|
    * * * * * * * * *
   "Under our nose..."


Riff 4
Guitar 1
eb|--------------------|
Bb|--------------------|
Gb|--------------------|
Db|--------------------|
Ab|-0-0-0--0-0-0-0-0-0-|
Db|-0-0-0--0-0-0-0-0-0-|
   "You cannot kill..."
eb|------------------------------|
Bb|------------------------------|
Gb|------------------------------|
Db|------------------------------|
Ab|-0-0-0--0-0-0-0-5-5-5-6-6-5-3-|
Db|-0-0-0--0-0-0-0-5-5-5-6-6-5-3-|
   "...what doesn't die..."
eb|--------------------|
Bb|--------------------|
Gb|--------------------|
Db|--------------------|
Ab|-0-0-0--0-0-0-0-0-0-|
Db|-0-0-0--0-0-0-0-0-0-|
   "Live up to..."
eb|--------------------|
Bb|--------------------|
Gb|--------------------|
Db|--------------------|
Ab|-0-0-0--0-0-0-0-0-0-|
Db|-0-0-0--0-0-0-0-0-0-|
   "My full potential..."

Guitar 2
eb|-----------------------------|
Bb|-10-10-10-10--10-10-10-10-10-|
Gb|-13-13-13-13--13-13-13-13-13-|
Db|-----------------------------|
Ab|-----------------------------|
Db|-----------------------------|

eb|--------------------------10----10----10----10-------|
Bb|-10-10-10-10--10-10-10-10-13b15-13b15-13b15-13b15r13-|
Gb|-13-13-13-13--13-13-13-13----------------------------|
Db|-----------------------------------------------------|
Ab|-----------------------------------------------------|
Db|-----------------------------------------------------|

eb|------------------------------------------|
Bb|-10-10-10-10--10-10-10-10-10--10-10-10-10-|
Gb|-13-13-13-13--13-13-13-13-13--13-13-13-13-|
Db|------------------------------------------|
Ab|------------------------------------------|
Db|------------------------------------------|


Play Riff 2
Play Riff 3

Riff 4a
Guitar 1
eb|--------------------|
Bb|--------------------|
Gb|--------------------| ------------|
Db|--------------------|             |
Ab|-0-0-0--0-0-0-0-0-0-|             |
Db|-0-0-0--0-0-0-0-0-0-|             |
   "You cannot kill..."              |--> Play 3x
eb|------------------------------|   |
Bb|------------------------------|   |
Gb|------------------------------|   |
Db|------------------------------| --|
Ab|-0-0-0--0-0-0-0-5-5-5-6-6-5-3-|
Db|-0-0-0--0-0-0-0-5-5-5-6-6-5-3-|
   "...what doesn't die..."
eb|----------------------------------------------|
Bb|----------------------------------------------|
Gb|----------------------------------------------|
Db|----------------------------------------------|
Ab|----------------------------------------------|
Db|-0000-0--0000000000-0----0000-0--0000000000-0-|
    ****    **********      ****    **********
   "Live up to..."

Guitar 2
eb|-----------------------------|
Bb|-10-10-10-10--10-10-10-10-10-|
Gb|-13-13-13-13--13-13-13-13-13-| --------------------------|
Db|-----------------------------|                           |
Ab|-----------------------------|                           |
Db|-----------------------------|                           |
                                                            |--> Play 3x
eb|--------------------------10----10----10----10-------|   |
Bb|-10-10-10-10--10-10-10-10-13b15-13b15-13b15-13b15r13-|   |
Gb|-13-13-13-13--13-13-13-13----------------------------|   |
Db|-----------------------------------------------------| --|
Ab|-----------------------------------------------------|
Db|-----------------------------------------------------|



Riff 5
eb|---------------------------------|
Bb|---------------------------------|
Gb|---------------------------------|
Db|---------------------------------|
Ab|-5-5-5-6-6-6-3-3-3-4-4-4-6-6-3-3-|
Db|-5-5-5-6-6-6-3-3-3-4-4-4-6-6-3-3-|

Last time:
eb|-------------------------------|
Bb|-------------------------------|
Gb|-------------------------------|
Db|-------------------------------|
Ab|-5-5-5-6-6-6-3-3-3-4-4-4-6-6-3-|
Db|-5-5-5-6-6-6-3-3-3-4-4-4-6-6-3-|


Riff 6
eb|-------------------------------|
Bb|-------------------------------|
Gb|-------------------------------|
Db|-------------------------------|
Ab|-0-0-0-x-x-0-0-0-0-0-0-x-x-x-x-|
Db|-0-0-0-x-x-0-0-0-0-0-0-x-x-x-x-|
   "A stream of..."
eb|---------------------------------|
Bb|---------------------------------|
Gb|---------------------------------|
Db|---------------------------------|
Ab|-0-0-0-x-x-0-0-0-0-5-5-5-6-5-5-3-|
Db|-0-0-0-x-x-0-0-0-0-5-5-5-6-5-5-3-|
   "...blood..."

Guitar fill over above riff
eb|------------------------------------|
Bb|-12b13-{12}{12}{12}{12}{12}-(13)r12-|
Gb|-12b13-{12}{12}{12}{12}{12}-(13)r12-|
Db|------------------------------------|
Ab|------------------------------------|
Db|------------------------------------|
   "...blood..."
eb|--------------------|
Bb|-12b13-{12}-(13)r12-|
Gb|-12b13-{12}-(13)r12-|
Db|--------------------|
Ab|--------------------|
Db|--------------------|
   "...violence..."


Play Riff 5   Solo Rhythm

Final time:
eb|------------------------------------|
Bb|------------------------------------|
Gb|------------------------------------|
Db|------------------------------------|
Ab|-5-5-5-6-6-6-3-3-3-4-4-4-6-6-3-3-0--|
Db|-5-5-5-6-6-6-3-3-3-4-4-4-6-6-3-3-0--|

Play Riff 1   "A stream of..."

Riff 1a
eb|----------------------------------------|
Bb|----------------------------------------|
Gb|----------------------------------------|
Db|----------------------------------------|
Ab|----------------------------------------|
Db|-0000-0----0000000000-0--000000000000-0-|
    ****      **********    ************
   "A stream of..."
                                x3
eb|------------------------------|
Bb|------------------------------|
Gb|------------------------------|
Db|------------------------------|
Ab|------------------------------|
Db|-0000000000-0--000000000000-0-|
    **********    ************
   "...what doesn't die..."
eb|--------------------------------------------------|
Bb|--------------------------------------------------|
Gb|--------------------------------------------------|
Db|--------------------------------------------------|
Ab|--------------------------------------------------|
Db|-0000-0-0000-0-0000-0-0000-0-0000-0-0000-0-0000-0-|
    ****   ****   ****   ****   ****   ****   ****
   "...stream of consciousness..."
eb|---------------|
Bb|---------------|
Gb|---------------|
Db|---------------|
Ab|---------------|
Db|-0000000000...-|
    **********
   "...die..."


Riff 4a
Guitar 1
eb|--------------------|
Bb|--------------------|
Gb|--------------------| ------------|
Db|--------------------|             |
Ab|-0-0-0--0-0-0-0-0-0-|             |
Db|-0-0-0--0-0-0-0-0-0-|             |
   "You cannot kill..."              |--> Play 3x
eb|------------------------------|   |
Bb|------------------------------|   |
Gb|------------------------------|   |
Db|------------------------------| --|
Ab|-0-0-0--0-0-0-0-5-5-5-6-6-5-3-|
Db|-0-0-0--0-0-0-0-5-5-5-6-6-5-3-|
   "...what doesn't die..."
eb|--------------------------------------------|
Bb|--------------------------------------------|
Gb|--------------------------------------------|
Db|--------------------------------------------|
Ab|-0-0-0--0-0-0-0-0-0-------------------------|
Db|-0-0-0--0-0-0-0-0-0----0000-0--0000000000-0-|
                          ****    **********
   "Live up to..."

Guitar 2
eb|-----------------------------|
Bb|-10-10-10-10--10-10-10-10-10-|
Gb|-13-13-13-13--13-13-13-13-13-| --------------------------|
Db|-----------------------------|                           |
Ab|-----------------------------|                           |
Db|-----------------------------|                           |
                                                            |--> Play 3x
eb|--------------------------10----10----10----10-------|   |
Bb|-10-10-10-10--10-10-10-10-13b15-13b15-13b15-13b15r13-|   |
Gb|-13-13-13-13--13-13-13-13----------------------------|   |
Db|-----------------------------------------------------| --|
Ab|-----------------------------------------------------|
Db|-----------------------------------------------------|

eb|------------------------------------------|
Bb|-10-10-10-10--10-10-10-10-10--10-10-10-10-|
Gb|-13-13-13-13--13-13-13-13-13--13-13-13-13-|
Db|------------------------------------------|
Ab|------------------------------------------|
Db|------------------------------------------|
Tap to rate this tab
 
# A B C D E F G H I J K L M N O P Q R S T U V W X Y Z