Anthrax - Pieces tab

eb:--------------------2-2-2-0-------|
Bb:-2--2--0-2-3-2-0--2-2-2-2-0-2-----|
Gb:-2--2--2-2-2-2-2--3-3-3-3-3---3---|
Db:-2--2--2-2-2-2-2--4-4-4-4-4-----4-|
Ab:-0--0--0-0-0-0-0--4-4-4-4-4-------|
Eb:------------------2-2-2-2-2-------|

e:-0--0-0-0-0-0-0-0-0-0-0--3--3-------2------2--------2-----0-2-3-2-0-2------|
B:-0--0-0-0-0-0-0-0-0-0-0--3----3-------3------3--------3---------------3----|
G:-1--1-1-1-1-1-1-1-1-1-1--4------4-------2------2--------2---------------2--|
D:-2--2-2-2-2-2-2-2-2-2-2--5-----------------------0------------------------0|
A:-2--2-2-2-2-2-2-2-2-2-2--5-------------------------------------------------|
E:-0--0-0-0-0-0-0-0-0-0-0--3-------------------------------------------------|

eb:--------------------2-2-2-0-------|
Bb:-2--2--0-2-3-2-0--2-2-2-2-0-2-----|
Gb:-2--2--2-2-2-2-2--3-3-3-3-3---3---|
Db:-2--2--2-2-2-2-2--4-4-4-4-4-----4-|
Ab:-0--0--0-0-0-0-0--4-4-4-4-4-------|
Eb:------------------2-2-2-2-2-------|

e:-0--0-----0-----0-----0------3--3-------2------2--------2------2-0-2-3-2-0-2------|
B:-0----0-----0-----0-----0----3----3-------3------3---3----3------------------3----|
G:-1------1-----1-----1-----1--4------4-------2------2-2------2------------------2--|
D:-2---------------------------5-----------------------0---------------------------0|
A:-2---------------------------5----------------------------------------------------|
E:-0---------------------------3----------------------------------------------------|

e:-----------------------0-0-----0-----0-----|
B:-1-1------3-1-0-1------1---1-----1-----1---|
G:-0---0------------0----2-----2-----2-----2-|
D:-2-----2------------2--2-------------------|
A:-3---------------------0-------------------|
E:-------------------------------------------|


e:-----------------------0-0-----0-----0-----|
B:-1-1------3-1-0-1------1---1-----1-----1---|
G:-0---0------------0----2-----2-----2-----2-|
D:-2-----2------------2--2-------------------|
A:-3---------------------0-------------------|
E:-------------------------------------------|

:-0-0-0-0-0-0-0-|
:-1-1-1-1-1-1-1-|
:-2-2-2-2-2-2-2-|
:-2-2-2-2-2-2-2-|
:-0-0-0-0-0-0-0-|
:---------------|


e:-3-3-----3-3-3-3-3-3------------------------|
B:-3---3---3-3-3-3-3-3--1-1-----1-1-1-1-1-1-1-|
G:-0-----0-0-0-0-0-0-0--0---0---0-0-0-0-0-0-0-|
D:-0-------0-0-0-0-0-0--2-----2-2-2-2-2-2-2-2-|
A:-2-------2-2-2-2-2-2--3-------3-3-3-3-3-3-3-|
E:-3-------3-3-3-3-3-3------------------------|


e:--------------------------|
B:-1--------0---------------|
G:-0------0-----------------|
D:-2----2-------------------|
A:-3--3--------2----0-------|
E:----------------3---------|

eb:--------------------2-2-2-0-------|
Bb:-2--2--0-2-3-2-0--2-2-2-2-0-2-----|
Gb:-2--2--2-2-2-2-2--3-3-3-3-3---3---|
Db:-2--2--2-2-2-2-2--4-4-4-4-4-----4-|
Ab:-0--0--0-0-0-0-0--4-4-4-4-4-------|
Eb:------------------2-2-2-2-2-------|

e:-0--0-----0-----0-----0------3--3-------2------2--------2------2-0-2-3-2-0-2------|
B:-0----0-----0-----0-----0----3----3-------3------3---3----3------------------3----|
G:-1------1-----1-----1-----1--4------4-------2------2-2------2------------------2--|
D:-2---------------------------5-----------------------0---------------------------0|
A:-2---------------------------5----------------------------------------------------|
E:-0---------------------------3----------------------------------------------------|

eb:--------------------2-2-2-0-------|
Bb:-2--2--0-2-3-2-0--2-2-2-2-0-2-----|
Gb:-2--2--2-2-2-2-2--3-3-3-3-3---3---|
Db:-2--2--2-2-2-2-2--4-4-4-4-4-----4-|
Ab:-0--0--0-0-0-0-0--4-4-4-4-4-------|
Eb:------------------2-2-2-2-2-------|


e:-0--0-----0-----0-----0------3--3-------2------2--------2------2-0-2-3-2-0-2------|
B:-0----0-----0-----0-----0----3----3-------3------3---3----3------------------3----|
G:-1------1-----1-----1-----1--4------4-------2------2-2------2------------------2--|
D:-2---------------------------5-----------------------0---------------------------0|
A:-2---------------------------5----------------------------------------------------|
E:-0---------------------------3----------------------------------------------------|

e:-----------------------0-0-----0-----0-----|
B:-1-1------3-1-0-1------1---1-----1-----1---|
G:-0---0------------0----2-----2-----2-----2-|
D:-2-----2------------2--2-------------------|
A:-3---------------------0-------------------|
E:-------------------------------------------|


e:-----------------------0-0-----0-----0-----|
B:-1-1------3-1-0-1------1---1-----1-----1---|
G:-0---0------------0----2-----2-----2-----2-|
D:-2-----2------------2--2-------------------|
A:-3---------------------0-------------------|
E:-------------------------------------------|

:-0-0-0-0-0-0-0-|
:-1-1-1-1-1-1-1-|
:-2-2-2-2-2-2-2-|
:-2-2-2-2-2-2-2-|
:-0-0-0-0-0-0-0-|
:---------------|


e:-3-3-----3-3-3-3-3-3------------------------|
B:-3---3---3-3-3-3-3-3--1-1-----1-1-1-1-1-1-1-|
G:-0-----0-0-0-0-0-0-0--0---0---0-0-0-0-0-0-0-|
D:-0-------0-0-0-0-0-0--2-----2-2-2-2-2-2-2-2-|
A:-2-------2-2-2-2-2-2--3-------3-3-3-3-3-3-3-|
E:-3-------3-3-3-3-3-3------------------------|


e:---------------------------0-------|
B:-1--------0--------0---------3-----|
G:-0------0--------0-------------0---|
D:-2----2--------0-----------------0-|
A:-3--3--------2---------------------|
E:----------------------0------------|

e:-------------------------0-------|
B:--------0--------0---------3-----|
G:------0--------0-------------0---|
D:----2--------0-----------------0-|
A:--3--------2---------------------|
E:--------------------0------------|

e:---------------------0----------|
B:--------0--------0---0----------|
G:------0--------0-----1----------|
D:----2--------0-------2----------|
A:--3--------2---------2----------|
E:---------------------0----------|
Tap to rate this tab
 
# A B C D E F G H I J K L M N O P Q R S T U V W X Y Z