Song name
# A B C D E F G H I J K L M N O P Q R S T U V W X Y Z

Anthrax - Only tab

#----------------------------------PLEASE NOTE---------------------------------#
#This file is the author's own work and represents their interpretation of the #
#song. You may only use this file for private study, scholarship, or research. #
#------------------------------------------------------------------------------#

ONLY
As recorded by Anthrax
(From the 2002 Album SOUND OF WHITE NOISE)

Transcribed by unregistered
	

Words and Music by Charlie Benante, Scott Ian, Frank Bello, & John Bush

Gtr I (E A D G B E) - 'Untitled'
Gtr II (E A D G B E) - 'Untitled'
Gtr III (E A D G B E) - 'Untitled'

  Moderate Rock Q=112
 4/4
  Gtr II
  Wx4            S S S S S S S S S S S S S S S S  3x
|------------||-----------------------------------||
|------------||o---------------------------------o||
|------------||--4-4-4-4-4-4-4-4-4-4-4-4-4-4-4-4--||
|------------||--4-4-4-4-4-4-4-4-4-4-4-4-4-4-4-4--||
|------------||o---------------------------------o||
|------------||--2-2-2-2-2-2-2-2-2-2-2-2-2-2-2-2--||
|
| Gtr III
| Wx4            S S S S S S S S S S S S S S S S  3x
|------------||-----------------------------------||
|------------||o---------------------------------o||
|------------||-----------------------------------||
|------------||--4-4-4-4-4-4-4-4-4-4-4-4-4-4-4-4--||
|------------||o-2-2-2-2-2-2-2-2-2-2-2-2-2-2-2-2-o||
|------------||-----------------------------------||


  S S S S S S S S E   E     Q
|---------------------------------|
|---------------------------------|
|-4-4-4-4-4-4-4-4-4---------------|
|-4-4-4-4-4-4-4-4-4---------------|
|---------------------2s===12\----|
|-2-2-2-2-2-2-2-2-2---------------|
|
| S S S S S S S S S S S S   Q
|---------------------------------|
|---------------------------------|
|---------------------------------|
|-4-4-4-4-4-4-4-4-4-2-2-2---------|
|-2-2-2-2-2-2-2-2-2-------/12\----|
|---------------------------------|


  Gtrs I, II
  S S S S S S S S S S S S S S S S
|---------------------------------|
|---------------------------------|
|-4-4-4-4-4-4-4-4-4-4-4-4-4-4-4-4-|
|---------------------------------|
|-2-2-2-2-2-2-2-2-2-2-2-2-2-2-2-2-|
|---------------------------------|


                                    Gtr II
  S S S S S S S S S S S S S S S S   S S S S S S S S S S S S S S S S
|---------------------------------|---------------------------------|
|---------------------------------|---------------------------------|
|-4-4-4-4-4-4-4-4-4-4-4-4-4-4-4-4-|-4-4-4-4-4-4-4-4-4-4-4-4-4-4-4-4-|
|---------------------------------|---------------------------------|
|-2-2-2-2-2-2-2-2-2-2-2-2-2-2-2-2-|-2-2-2-2-2-2-2-2-2-2-2-2-2-2-2-2-|
|-3-3-3-3-3-3-3-3-3-3-3-3-3-3-3-3-|-2-2-2-2-2-2-2-2-2-2-2-2-2-2-2-2-|


  S S S S S S S S S S S S S S S S
|---------------------------------|
|---------------------------------|
|-4-4-4-4-4-4-4-4-4-4-4-4-4-4-4-4-|
|---------------------------------|
|-2-2-2-2-2-2-2-2-2-2-2-2-2-2-2-2-|
|-3-3-3-3-3-3-3-3-3-3-3-3-3-3-3-3-|


  S S S S S S S S S S S S S S S S   S S S S S S S S S S S S S S S S
|---------------------------------|---------------------------------|
|---------------------------------|---------------------------------|
|-4-4-4-4-4-4-4-4-4-4-4-4-4-4-4-4-|-4-4-4-4-4-4-4-4-4-4-4-4-4-4-4-4-|
|---------------------------------|---------------------------------|
|-2-2-2-2-2-2-2-2-2-2-2-2-2-2-2-2-|-2-2-2-2-2-2-2-2-2-2-2-2-2-2-2-2-|
|---------------------------------|-3-3-3-3-3-3-3-3-3-3-3-3-3-3-3-3-|


  S S S S S S S S S S S S S S S S   W
|---------------------------------|----------|
|---------------------------------|----------|
|-4-4-4-4-4-4-4-4-4-4-4-4-4-4-4-4-|----------|
|---------------------------------|-2--------|
|-2-2-2-2-2-2-2-2-2-2-2-2-2-2-2-2-|-2--------|
|-2-2-2-2-2-2-2-2-2-2-2-2-2-2-2-2-|-0--------|


  S S S S S S S S S S S S S S S S   S S S S S S S S S S S S S S S S
|---------------------------------|------------------------------------|
|---------------------------------|------------------------------------|
|-4-4-4-4-4-4-4-4-4-4-4-4-4-4-4-4-|-4-4-4-4-4-4-4-4-4-4-4-4-4-4-4-4----|
|---------------------------------|------------------------------------|
|-2-2-2-2-2-2-2-2-2-2-2-2-2-2-2-2-|-2-2-2-2-2-2-2-2-2-2-2-2-2-2-2-2----|
|---------------------------------|-3-3-3-3-3-3-3-3-3-3-3-3-3-3-3-3----|


  S S S S S S S S S S S S S S S S   W
|---------------------------------|----------|
|---------------------------------|----------|
|-4-4-4-4-4-4-4-4-4-4-4-4-4-4-4-4-|-4--------|
|---------------------------------|-2--------|
|-2-2-2-2-2-2-2-2-2-2-2-2-2-2-2-2-|-2--------|
|-2-2-2-2-2-2-2-2-2-2-2-2-2-2-2-2-|-0--------|


  PM----------------------------|
  S S S S S S S S S S S S S S S S
|----------------------------------||
|----------------------------------||
|----------------------------------||
|----------------------------------||
|----------------------------------||
|-0-0-0-0-0-0-0-0-0-0-0-0-0-0-0-0--||


   1st & 2nd Verses
      PM----|     PM----|       PM----|     PM----|
    E S S S S E E S S S S E   E S S S S E E S S S S E
||--------------------------|-------------------------|
||o-------------------------|-------------------------|
||--------------------------|-------------------------|
||--------------------------|-------------------------|
||o-------------------------|-------------------------|
||--7-7-7-7-7-5-7-7-7-7-7-5-|-7-7-7-7-7-5-7-7-7-7-7-5-|
|
|   Gtr I
|   W                         W
||--------------------------|-------------------------|
||o-------------------------|-------------------------|
||--------------------------|-------------------------|
||--------------------------|-------------------------|
||o-------------------------|-------------------------|
||--------------------------|-------------------------|


  S S S S S S S S S S S S S S S S   W                              W
|---------------------------------|----------------------------|-------------------|
|---------------------------------|----------------------------|-------------------|
|---------------------------------|----------------------------|-------------------|
|---------------------------------|-6--------------------------|---5---------------|
|-5-----5-----5-----5-----5-------|-6--------------------------|---5---------------|
|---7-7---7-7---7-7---7-7---7-7-7-|-4--------------------------|---3---------------|
|
|                                                          ~~~~~~~~~~~~~~~~
| W                                 H     Q       a       +Q      +E   +Q.   H
|---------------------------------|----------------------------|-------------------|
|---------------------------------|------10b12r=(10)b12==(10)--|-(10)-(10)---------|
|---------------------------------|----------------------------|-------------x\----|
|---------------------------------|----------------------------|-------------x\----|
|---------------------------------|----------------------------|-------------------|
|---------------------------------|----------------------------|-------------------|


    PM----|     PM----|       PM----|     PM----|
  E S S S S E E S S S S E   E S S S S E E S S S S E
|-------------------------|-------------------------|
|-------------------------|-------------------------|
|-------------------------|-------------------------|
|-------------------------|-------------------------|
|-------------------------|-------------------------|
|-7-7-7-7-7-5-7-7-7-7-7-5-|-7-7-7-7-7-5-7-7-7-7-7-5-|


  S S S S S S S S S S S S S S S S   W          W
|---------------------------------|----------|------||
|---------------------------------|----------|------||
|---------------------------------|----------|------||
|---------------------------------|-6--------|-5----||
|-5-----5-----5-----5-----5-------|-6--------|-5----||
|---7-7---7-7---7-7---7-7---7-7-7-|-4--------|-3----||


 Pre-Chorus
  E. S +E  E +S  E. E E   E. S +E  E +S  E. E E
|-----------------------|-----------------------|
|-----------------------|-----------------------|
|-----------------------|-----------------------|
|----------7-(7)--------|----------7-(7)--------|
|----5-(5)-------5----5-|----5-(5)--------------|
|-7-----------------7---|-7--------------7--6-5-|


                 ~~
  E. S +E  E +S  E. E E   E. S +E  E +S  E. E E
|-----------------------|------------------------|
|-----------------------|------------------------|
|-----------------------|------------------------|
|----------6-(6)--------|----------5-(5)----5----|
|----5-(5)-------5------|----5-(5)-5-(5)-5----5--|
|-4-----------------5-4-|-3----------------------|


  E. S +E  E +S  E. E E   E. S +E  E +S  E. E E
|-----------------------|-----------------------|
|-----------------------|-----------------------|
|-----------------------|-----------------------|
|----------7-(7)--------|----------7-(7)--------|
|----5-(5)-------5----5-|----5-(5)--------------|
|-7-----------------7---|-7--------------7--6-5-|


                 ~~
  E. S +E  E +S  E. E E   E. S +E  E +S  E. E E
|-----------------------|------------------------|
|-----------------------|------------------------|
|-----------------------|------------------------|
|----------6-(6)--------|----------5-(5)----5----|
|----5-(5)-------5------|----5-(5)-5-(5)-5-------|
|-4-----------------5-4-|-3-------------------0--|


                              Chorus
                            $
  H    +Q.   S S   W           S S S S S S S S S S S S S S S S
|----------------|----------||---------------------------------|
|----------------|----------||---------------------------------|
|-4----(4)-------|-4--------||-4-4-4-4-4-4-4-4-4-4-4-4-4-4-4-4-|
|-2----(2)---2-2-|-2--------||---------------------------------|
|-2----(2)---2-2-|-2--------||-2-2-2-2-2-2-2-2-2-2-2-2-2-2-2-2-|
|-0----(0)---0-0-|-0--------||---------------------------------|
|
| W                W           W
|----------------|----------||---------------------------------|
|----------------|----------||---------------------------------|
|----------------|----------||---------------------------------|
|----------------|----------||---------------------------------|
|----------------|----------||---------------------------------|
|----------------|----------||---------------------------------|


    S  S S S S S S S S S S S S S S S
|--------------------------------------|
|--------------------------------------|
|---4--4-4-4-4-4-4-4-4-4-4-4-4-4-4-4---|
|--------------------------------------|
|---2--2-2-2-2-2-2-2-2-2-2-2-2-2-2-2---|
|---3--3-3-3-3-3-3-3-3-3-3-3-3-3-3-3---|
|
| Gtr I
|   ~~~~
|   W
|-(17)---------------------------------|
|--------------------------------------|
|--------------------------------------|
|--------------------------------------|
|--------------------------------------|
|--------------------------------------|


    S  S S S S S   S   S S S S S S S S S
|----------------------------------------|
|----------------------------------------|
|---4--4-4-4-4-4---4---4-4-4-4-4-4-4-4-4-|
|----------------------------------------|
|---2--2-2-2-2-2---2---2-2-2-2-2-2-2-2-2-|
|---2--2-2-2-2-2---2---2-2-2-2-2-2-2-2-2-|
|
|  +Q.            +E     H
|-(17)-----------(17)\-------------------|
|----------------------------------------|
|----------------------------------------|
|----------------------------------------|
|----------------------------------------|
|----------------------------------------|


  W          S S S S S S S S S S S S S S S S
|----------|----------------------------------|
|----------|----------------------------------|
|----------|-4-4-4-4-4-4-4-4-4-4-4-4-4-4-4-4--|
|-2--------|----------------------------------|
|-2--------|-2-2-2-2-2-2-2-2-2-2-2-2-2-2-2-2--|
|-0--------|----------------------------------|
|
| W          W
|----------|----------------------------------|
|----------|----------------------------------|
|----------|----------------------------------|
|----------|----------------------------------|
|----------|----------------------------------|
|----------|----------------------------------|


                                                                      1.
                                                           To Coda
  S S S S S S S S S S S S S S S S   S S S S S S S S S S S S S S S S   W
|---------------------------------|---------------------------------|------|
|---------------------------------|---------------------------------|------|
|-4-4-4-4-4-4-4-4-4-4-4-4-4-4-4-4-|-4-4-4-4-4-4-4-4-4-4-4-4-4-4-4-4-|------|
|---------------------------------|---------------------------------|-2----|
|-2-2-2-2-2-2-2-2-2-2-2-2-2-2-2-2-|-2-2-2-2-2-2-2-2-2-2-2-2-2-2-2-2-|-2----|
|-3-3-3-3-3-3-3-3-3-3-3-3-3-3-3-3-|-2-2-2-2-2-2-2-2-2-2-2-2-2-2-2-2-|-0----|


                                      2.
  PM----------------------------|
  S S S S S S S S S S S S S S S S     H    +Q.   S S
|----------------------------------||----------------|
|---------------------------------o||----------------|
|----------------------------------||----------------|
|----------------------------------||-2----(2)---x-2-|
|---------------------------------o||-2----(2)---x-2-|
|-0-0-0-0-0-0-0-0-0-0-0-0-0-0-0-0--||-0----(0)---x-0-|


  W            S S S S S S S S S S S S S S S S    4x
|----------||-------------------------------------||
|----------||o-----------------------------------o||
|-4--------||--4-4-------------4-4----------------||
|-2--------||--4-4-x-x-x-x-x-x-4-4-x-x-x-x-x-x----||
|-2--------||o-2-2-x-x-x-x-x-x-2-2-x-x-x-x-x-x---o||
|-0--------||-------------------------------------||


 Guitar Solo
  Gtr I
                                                          ~
                  |--3---|                       |--3---|
  E.      S      +S   S  S  E    E.      S      +S   S  S E
|-----------------------------------------------------------|
|--------10-----(10)-------10-----------10-----(10)---------|
|---------9b11===(9)r(9)p7--9b11-7-------9b11===(9)r(9)p7---|
|---------------------------------------------------------9-|
|-----------------------------------------------------------|
|-----------------------------------------------------------|
|
| Gtrs II, III
| S  S E          Q              S  S E          Q
|-----------------------------------------------------------|
|-----------------------------------------------------------|
|-4--4---------------------------4--4-----------------------|
|-4--4---------------------------4--4-----------------------|
|-2--2---------------------------2--2-----------------------|
|-----------------------------------------------------------|


      PM--|               ~~~~~~      PM----|                                              ~
  +S  S S S  S     T  T S S +S  S S S S S S S   E.      S     S  S  E    E.     S     S  S E
|-------7-------------------------------------|-----------------------------------------------|
|-------7---10--------------------------------|--------10----------10-------------------------|
|-----7---7--9b11r(9)p7---7-(7)---------------|---------9b11r(9)p7--9b11--------9b11r(9)p7----|
|-(9)-------------------9-------9-7-----------|--------------------------------------------9--|
|-----------------------------------9-7-5-----|-----------------------------------------------|
|-----------------------------------------7-5-|-----------------------------------------------|
|
|  S  S E    Q               H                  S  S E        Q          S  S E       Q
|---------------------------------------------|-----------------------------------------------|
|---------------------------------------------|-----------------------------------------------|
|--4--4---------------------------------------|-4--4---------------------4--4-----------------|
|--4--4---------------------------------------|-4--4---------------------4--4-----------------|
|--2--2---------------------------------------|-2--2---------------------2--2-----------------|
|---------------------------------------------|-----------------------------------------------|


   ~~~             PM~~~~~~
  +E.     S    S S S S +S  S S S S  E.
|--------------------------------------|
|--------------------------------------|
|---------9b11-9p7---7-(7)-------------|
|-(9)--------------9-------9-7---------|
|------------------------------9-7--5--|
|--------------------------------------|
|
|  S  S E      Q        Q        Q
|--------------------------------------|
|--------------------------------------|
|--4--4--------------------------------|
|--4--4--------------------------------|
|--2--2--------------------------------|
|--------------------------------7\----|


       ~~~~~~~~~~~~~                              ~
                              |--3--|
  E   +Q.       +H            S S   S S S S S S S H
|---------------------------|--------------------------------|
|---------------------------|--------------------------------|
|-7---(7)-------(7)---------|-6h7p==6---6--------------------|
|---------------------------|---------9---7-9-5-7------------|
|---------------------------|---------------------7----------|
|---------------------------|--------------------------------|
|
| S E     S E E  S  E S E E   S   E     S E   E   S E S E E
|---------------------------|--------------------------------|
|---------------------------|--------------------------------|
|-4-4-----4-2----4--4-4-2---|-4---4-----4-2-------4-4-4-2----|
|-4-4-----4-2----4--4-4-2---|-4---4-----4-2-------4-4-4-2----|
|-2-2-----2-0----2--2-2-0---|-2---2-----2-0-------2-2-2-0----|
|-------------0-----------0-|-----------------0-----------0--|


            |----6----|             |-3-|    |-3--|
  +E    S S S S S S S S S S S  T  T T T T  S S S  S
|-----------------------------------7h9p7----7-9-10-|
|-----------------------8-7h8-10-10-------10--------|
|-------5s4-6h7-6h7-7-9-----------------------------|
|-------5-------------------------------------------|
|-(7)-----------------------------------------------|
|---------------------------------------------------|
|
|  S  E   S E     E     S E    S    E        E
|---------------------------------------------------|
|---------------------------------------------------|
|--4--4---4-2-----------4-4----4----2---------------|
|--4--4---4-2-----------4-4----4----2---------------|
|--2--2---2-0-----------2-2----2----0---------------|
|-----------------0--------------------------0------|


                                ~
                    |----6----|
  T T T  T T  T T T S S S S S S Q     +E   e
|-7h9p7---------------------------------------|
|-------10-8-10-8-7h8p7-----------------------|
|-----------------------9-0---7-9-----(9)\-4--|
|---------------------------9-----------------|
|---------------------------------------------|
|---------------------------------------------|
|
| S   E         S   E     E     S E S  E   E
|---------------------------------------------|
|---------------------------------------------|
|-4---4---------4---2-----------4-4-4--2------|
|-4---4---------4---2-----------4-4-4--2------|
|-2---2---------2---0-----------2-2-2--0------|
|-------------------------0----------------0--|


         |--3--| |----3-----|                |----3-----|
  E      S S   S S     S    S E   E.       S S     S    S e
|-------------------------------------------------------------|
|-7------7-7---7------------------7--------7------------------|
|-9b11-----------9b11r(9)p==7-----9b11-------9b11r(9)p==7-----|
|-----------------------------9---------------------------9---|
|-------------------------------------------------------------|
|-------------------------------------------------------------|
|
| S    S S   S   S        S   S S S    S S S S        S   S S
|-------------------------------------------------------------|
|-------------------------------------------------------------|
|-4----4--------------------------4----4----------------------|
|-4----4-x---x---x--------x---x-x-4----4-x-x-x--------x---x-x-|
|-2----2-x---x---x--------x---x-x-2----2-x-x-x--------x---x-x-|
|-------------------------------------------------------------|


                            ~~~~~~      ~
             |----3-----|
  E      S S S     S    S S S +E    S S E    E
|-------------------------------------------------|
|-7------7-7--------------------------------------|
|-9b11-------9b11r(9)p==7---7-(7)-----------------|
|-------------------------9---------9-7-9---[9]---|
|-------------------------------------------------|
|-------------------------------------------------|
|
| S    S S S S        S   S S  S  S S S S S  S  S
|-------------------------------------------------|
|-------------------------------------------------|
|-4----4------------------------------------------|
|-4----4-x-x-x--------x---x-x--x--x-x-x-x-x--x--x-|
|-2----2-x-x-x--------x---x-x--x--x-x-x-x-x--x--x-|
|-------------------------------------------------|


               |---------6---------|                |-----3-----|
   E      S S  S      S    S S     E    E      S S  S      S    S  E
|--7------7-7---------------------------7------7-7---------------------|
|-10b12-------10b12r(10)---0------10---10b12-------10b12r(10)---0------|
|----------------------------9b11---------------------------------10---|
|----------------------------------------------------------------------|
|----------------------------------------------------------------------|
|----------------------------------------------------------------------|
|
|  S    S S S  S         S   S       S  S    S S S  S         S    S S
|----------------------------------------------------------------------|
|----------------------------------------------------------------------|
|--4----4-------------------------------4----4-------------------------|
|--4----4-x-x--x---------x---x-------x--4----4-x-x--x---------x----x-x-|
|--2----2-x-x--x---------x---x-------x--2----2-x-x--x---------x----x-x-|
|----------------------------------------------------------------------|


                                                     ~~~~~
   E.        S     +E     S    S  S     +S   E       Q
|--7---------7-----(7)----7----7--7-----(7)---------------------|
|-10b12-----10b12-(10)---10b12---10b12-(10)-10b12---10b12-------|
|---------------------------------------------------------------|
|---------------------------------------------------------------|
|---------------------------------------------------------------|
|---------------------------------------------------------------|
|
|  S    S S  S      S  S  S    S  S      S   S    S  S    S S S
|---------------------------------------------------------------|
|---------------------------------------------------------------|
|---------------------------------------------------------------|
|---------------------------------------------------------------|
|--5---------5------------5--------------5-----------5----------|
|-------7-7---------7--7-------7--7----------7----7-------7-7-7-|


      ~~~~~~~~~~~~~~~~~~
                                  |-3--|
  Q  +Q   +H          H     E. S +S  S S e
|-------------------|------------------------|
|-------------------|------------------------|
|-------------------|-7--------7-(7)-9-9-9---|
|-9--(9)--(9)-------|-------9----------------|
|-------------------|------------------------|
|-------------------|------------------------|
|
| H       +Q.   S S   H    +Q.           S S
|-------------------|------------------------|
|-------------------|-3----(3)---------------|
|-4-------(4)---0-0-|-0----(0)---------------|
|-4-------(4)---0-0-|-0----(0)-----------4-4-|
|-2-------(2)-------|--------------------4-4-|
|---------------3-3-|-3----(3)-----------2-2-|


                                           \6
                            ~~~~
  E    E E    S S  E    +E  E    S S   Q  +Q   +E  Q   S  S
|------------------------------------|--------------------------|
|---------------7--------------------|--------------------------|
|-9b11-9-9b11-7----9b11-(9)-9b11-----|----------------12-14b16--|
|--------------------------------9-7-|-9--(9)--(9)--------------|
|------------------------------------|--------------------------|
|------------------------------------|--------------------------|
|
| H               +Q.            S S   W
|------------------------------------|--------------------------|
|------------------------------------|--------------------------|
|------------------------------------|--------------------------|
|-4---------------(4)------------2-2-|-2------------------------|
|-4---------------(4)------------2-2-|-2------------------------|
|-2---------------(2)------------0-0-|-0------------------------|


    ~~~~
    W                  Q      +E   S  S  E.  S E  E
|-------------------|---------------------------------|
|-------------------|-15b19--(15)-----------15---17---|
|-(14)--------------|-------------16-14h16------------|
|-------------------|---------------------------------|
|-------------------|---------------------------------|
|-------------------|---------------------------------|
|
|   H     +Q.   S S    H                +Q.       S S
|-------------------|---------------------------------|
|-------------------|--3----------------(3)-----------|
|---4-----(4)---0-0-|--0----------------(0)-------4-4-|
|---4-----(4)---0-0-|--0----------------(0)-------4-4-|
|---2-----(2)-------|---------------------------------|
|---------------3-3-|--3----------------(3)-------2-2-|


                                                        D.S. al Coda
                                                                ~~~~~~~~~
   Q       +S    S   E  E.    S   E   T  T  T  T    E.    +S   +Q    +H
|------------------------------------------------|-17b19-(17)-(17)--(17)----||
|-17b19===(17)r(17)-15-17b19-17-(17)-15----------|--------------------------||
|---------------------------------------14h16p14-|--------------------------||
|------------------------------------------------|--------------------------||
|------------------------------------------------|--------------------------||
|------------------------------------------------|--------------------------||
|
|  H                   +Q.            S     S       W
|------------------------------------------------|--------------------------||
|------------------------------------------------|--------------------------||
|------------------------------------------------|--------------------------||
|--4-------------------(4)------------2-----2----|--2-----------------------||
|--4-------------------(4)------------2-----2----|--2-----------------------||
|--2-------------------(2)------------0-----0----|--0-----------------------||


             Out-Chorus
  &
  W           S S S S S S S S S S S S S S S S
|----------||---------------------------------|
|----------||---------------------------------|
|----------||-4-4-4-4-4-4-4-4-4-4-4-4-4-4-4-4-|
|-2--------||-4-4-4-4-4-4-4-4-4-4-4-4-4-4-4-4-|
|-2--------||-2-2-2-2-2-2-2-2-2-2-2-2-2-2-2-2-|
|-0--------||---------------------------------|


  S S S S S S S S S S S S S S S S
|----------------------------------|
|----------------------------------|
|----------------------------------|
|-5-5-5-5-5-5-5-5-5-5-5-5-5-5-5-5--|
|-5-5-5-5-5-5-5-5-5-5-5-5-5-5-5-5--|
|-3-3-3-3-3-3-3-3-3-3-3-3-3-3-3-3--|


  S S S S S S S S S S S S S S S S
|---------------------------------|
|---------------------------------|
|-4-4-4-4-4-4-4-4-4-4-4-4-4-4-4-4-|
|-4-4-4-4-4-4-4-4-4-4-4-4-4-4-4-4-|
|-2-2-2-2-2-2-2-2-2-2-2-2-2-2-2-2-|
|-2-2-2-2-2-2-2-2-2-2-2-2-2-2-2-2-|


  H    +Q.   S S   S S S S S S S S S S S S S S S S
|----------------|---------------------------------|
|----------------|---------------------------------|
|------------4-4-|-4-4-4-4-4-4-4-4-4-4-4-4-4-4-4-4-|
|-2----(2)---4-4-|-4-4-4-4-4-4-4-4-4-4-4-4-4-4-4-4-|
|-2----(2)---2-2-|-2-2-2-2-2-2-2-2-2-2-2-2-2-2-2-2-|
|-0----(0)-------|---------------------------------|


  S S S S S S S S S S S S S S S S
|---------------------------------|
|---------------------------------|
|---------------------------------|
|-5-5-5-5-5-5-5-5-5-5-5-5-5-5-5-5-|
|-5-5-5-5-5-5-5-5-5-5-5-5-5-5-5-5-|
|-3-3-3-3-3-3-3-3-3-3-3-3-3-3-3-3-|


                                    PM----------------------------|
  S S S S S S S S S S S S S S S S   S S S S S S S S S S S S S S S S
|---------------------------------|---------------------------------|
|---------------------------------|---------------------------------|
|-4-4-4-4-4-4-4-4-4-4-4-4-4-4-4-4-|---------------------------------|
|-4-4-4-4-4-4-4-4-4-4-4-4-4-4-4-4-|---------------------------------|
|-2-2-2-2-2-2-2-2-2-2-2-2-2-2-2-2-|---------------------------------|
|-2-2-2-2-2-2-2-2-2-2-2-2-2-2-2-2-|-0-0-0-0-0-0-0-0-0-0-0-0-0-0-0-0-|


  Gtr I
  S S S S S S S S S S S S S S S S   E.     S +E    E   +S  E.     E   E
|---------------------------------|---------------------------------------|
|---------------------------------|---------------------------------------|
|-4-4-4-4-4-4-4-4-4-4-4-4-4-4-4-4-|---------------------------------------|
|-2-2-2-2-2-2-2-2-2-2-2-2-2-2-2-2-|----------------7---(7)----------------|
|---------------------------------|--------5-(5)-----------5----------5---|
|---------------------------------|-7-----------------------------7-------|
|
| Gtr II
| S S S S S S S S S S S S S S S S   S  S S S  S  S S S  S  S  S S S S S S
|---------------------------------|---------------------------------------|
|---------------------------------|---------------------------------------|
|-4-4-4-4-4-4-4-4-4-4-4-4-4-4-4-4-|-4--4-4-4--4--4-4-4--4--4--4-4-4-4-4-4-|
|-2-2-2-2-2-2-2-2-2-2-2-2-2-2-2-2-|-4--4-4-4--4--4-4-4--4--4--4-4-4-4-4-4-|
|---------------------------------|-2--2-2-2--2--2-2-2--2--2--2-2-2-2-2-2-|
|---------------------------------|---------------------------------------|


  E.     S +E    E   +S  E.     E   E
|---------------------------------------|
|---------------------------------------|
|---------------------------------------|
|----------------7---(7)----------------|
|--------5-(5)-----------5----------5---|
|-7-----------------------------7-------|
|
| S  S S S  S  S S S  S  S  S S S S S S
|---------------------------------------|
|---------------------------------------|
|---------------------------------------|
|-5--5-5-5--5--5-5-5--5--5--5-5-5-5-5-5-|
|-5--5-5-5--5--5-5-5--5--5--5-5-5-5-5-5-|
|-3--3-3-3--3--3-3-3--3--3--3-3-3-3-3-3-|


  E.     S +E    E   +S  E.     E   E
|---------------------------------------|
|---------------------------------------|
|---------------------------------------|
|----------------7---(7)----------------|
|--------5-(5)-----------5----------5---|
|-7-----------------------------7-------|
|
| S  S S S  S  S S S  S  S  S S S S S S
|---------------------------------------|
|---------------------------------------|
|-4--4-4-4--4--4-4-4--4--4--4-4-4-4-4-4-|
|-4--4-4-4--4--4-4-4--4--4--4-4-4-4-4-4-|
|-2--2-2-2--2--2-2-2--2--2--2-2-2-2-2-2-|
|-2--2-2-2--2--2-2-2--2--2--2-2-2-2-2-2-|


  E. S +E  E +S  E. E E     E.     S +E    E   +S  E.     E   E
|-------------------------|---------------------------------------|
|-------------------------|---------------------------------------|
|-------------------------|---------------------------------------|
|----------7-(7)----------|----------------7---(7)----------------|
|----5-(5)-------5----5---|--------5-(5)-----------5----------5---|
|-7-----------------7-----|-7-----------------------------7-------|
|
| H          +Q.      S S   S  S S S  S  S S S  S  S  S S S S S S
|-------------------------|---------------------------------------|
|-------------------------|---------------------------------------|
|---------------------4-4-|-4--4-4-4--4--4-4-4--4--4--4-4-4-4-4-4-|
|-2----------(2)------4-4-|-4--4-4-4--4--4-4-4--4--4--4-4-4-4-4-4-|
|-2----------(2)------2-2-|-2--2-2-2--2--2-2-2--2--2--2-2-2-2-2-2-|
|-0----------(0)----------|---------------------------------------|


  E.     S +E    E   +S  E.     E   E
|---------------------------------------|
|---------------------------------------|
|---------------------------------------|
|----------------7---(7)----------------|
|--------5-(5)-----------5----------5---|
|-7-----------------------------7-------|
|
| S  S S S  S  S S S  S  S  S S S S S S
|---------------------------------------|
|---------------------------------------|
|---------------------------------------|
|-5--5-5-5--5--5-5-5--5--5--5-5-5-5-5-5-|
|-5--5-5-5--5--5-5-5--5--5--5-5-5-5-5-5-|
|-3--3-3-3--3--3-3-3--3--3--3-3-3-3-3-3-|


                                          Gtr III
  E.     S +E    E   +S  E.     E   E     W          +W
|---------------------------------------|----------|--------|
|---------------------------------------|----------|--------|
|---------------------------------------|----------|--------|
|----------------7---(7)----------------|-2--------|-(2)----|
|--------5-(5)-----------5----------5---|-2--------|-(2)----|
|-7-----------------------------7-------|-0--------|-(0)----|
|
| S  S S S  S  S S S  S  S  S S S S S S   W          +W
|---------------------------------------|----------|--------|
|---------------------------------------|----------|--------|
|-4--4-4-4--4--4-4-4--4--4--4-4-4-4-4-4-|----------|--------|
|-4--4-4-4--4--4-4-4--4--4--4-4-4-4-4-4-|-2--------|-(2)----|
|-2--2-2-2--2--2-2-2--2--2--2-2-2-2-2-2-|-2--------|-(2)----|
|-2--2-2-2--2--2-2-2--2--2--2-2-2-2-2-2-|-0--------|-(0)----|


  S E S E E S E S E E   S E S E E S E S E E
|---------------------|---------------------|
|---------------------|---------------------|
|-4-4-4-2---4-4-4-2---|-4-4-4-2---4-4-4-2---|
|-4-4-4-2---4-4-4-2---|-4-4-4-2---4-4-4-2---|
|-2-2-2-0---2-2-2-0---|-2-2-2-0---2-2-2-0---|
|---------0---------0-|---------0---------0-|


  S E S E E S E S E E   S E S E E S E S E E
|---------------------|---------------------|
|---------------------|---------------------|
|-4-4-4-2---4-4-4-2---|-4-4-4-2---4-4-4-2---|
|-4-4-4-2---4-4-4-2---|-4-4-4-2---4-4-4-2---|
|-2-2-2-0---2-2-2-0---|-2-2-2-0---2-2-2-0---|
|---------0---------0-|---------0---------0-|


  S E S E E S E S E E   S E S E E S E S E E
|---------------------|---------------------|
|---------------------|---------------------|
|-4-4-4-2---4-4-4-2---|-4-4-4-2---4-4-4-2---|
|-4-4-4-2---4-4-4-2---|-4-4-4-2---4-4-4-2---|
|-2-2-2-0---2-2-2-0---|-2-2-2-0---2-2-2-0---|
|---------0---------0-|---------0---------0-|


  S E S E E S E S E E   E. S +E  E +E   E   Q
|---------------------|------------------------*|
|---------------------|------------------------*|
|-4-4-4-2---4-4-4-2---|-4--4-(4)-4-(4)-(4)\----*|
|-4-4-4-2---4-4-4-2---|-4--4-(4)-4-(4)-(4)\----*|
|-2-2-2-0---2-2-2-0---|-2--2-(2)-2-(2)-(2)\----*|
|---------0---------0-|------------------------*|



Duration Legend
---------------
W - whole; H - half; Q - quarter; E - 8th; S - 16th; T - 32nd; X - 64th; a - acciaccatura
+ - note tied to previous; . - note dotted; .. - note double dotted
Uncapitalized letters represent notes that are staccato (1/2 duration)
Irregular groupings are notated above the duration line
Duration letters will always appear directly above the note/fret number it represents the
duration for.  Duration letters with no fret number below them represent rests.  Multi-
bar rests are notated in the form Wxn, where n is the number of bars to rest for.  Low
melody durations appear below the staff

Tablature Legend
----------------
 h   - hammer-on
 p   - pull-off
 b   - bend
 pb  - pre-bend
 r   - bend release (if no number after the r, then release immediately)
 /\  - slide into or out of (from/to "nowhere")
 s   - legato slide
 S   - shift slide
 - natural harmonic
[n]  - artificial harmonic
n(n) - tapped harmonic
 ~   - vibrato
 tr  - trill
 T   - tap
 TP  - trem. picking
 PM  - palm muting
\n/  - tremolo bar dip; n = amount to dip
 \n  - tremolo bar down
 n/  - tremolo bar up
/n\  - tremolo bar inverted dip
 =   - hold bend; also acts as connecting device for hammers/pulls
 <> - volume swell (louder/softer)
 x   - on rhythm slash represents muted slash
 o   - on rhythm slash represents single note slash

Misc Legend
-----------
 |  - bar
||  - double bar
||o - repeat start
o|| - repeat end
*|  - double bar (ending)
 :  - bar (freetime)
 $  - Segno
 &  - Coda
Tempo markers -  = BPM(8/16=s8/s16), where s8 = swing 8ths, s16 = swing 16ths

Tap to rate this tab
# A B C D E F G H I J K L M N O P Q R S T U V W X Y Z