Song name
# A B C D E F G H I J K L M N O P Q R S T U V W X Y Z

Anthrax - Random Acts Of Senseless Violence tab

#----------------------------------PLEASE NOTE---------------------------------#
#This file is the author's own work and represents their interpretation of the #
#song. You may only use this file for private study, scholarship, or research. #
#------------------------------------------------------------------------------#

RANDOM ACTS OF SENSELESS VIOLENCE
As recorded by Anthrax
(From the 1995 Album STOMP 442)

Transcribed by Mike Sheehan
	

Words by Scott Ian and John Bush Music by Charlie Benante

D5
0 0 0 x x x
	
F5
3 3 3 x x x
	
F#5
4 4 4 x x x
	
G5
5 5 5 x x x

Bb5
8 8 8 x x x

Gtr I (D A D G B E) - 'Scott Ian'
Gtr II (D A D G B E) - 'Scott Ian'
Gtr III (D A D G B E) - 'Paul Crook'

 Intro
  Q=110
 4/4
  Gtrs I, II
  H    Q  E. S   S S S S S S S S S S S S S S S S
|--------------|---------------------------------|
|--------------|---------------------------------|
|--------------|---------------------------------|
|--------------|---------------------------------|
|------------x-|-x-x---x-x-x---x-x-x---x-x-x---x-|
|------------x-|-x-x---x-x-x---x-x-x---x-x-x---x-|
|
| Gtr III
| W              W
|--------------|---------------------------------|
|--------------|---------------------------------|
|--------------|---------------------------------|
|--------------|---------------------------------|
|--------------|---------------------------------|
|--------------|---------------------------------|


  S S S S S S S S S S S S S S S S    S S S S S S S S S S S S S S S S
|---------------------------------|-------------------------------------|
|---------------------------------|-------------------------------------|
|---------------------------------|-------------------------------------|
|---------------------------------|-------------------------------------|
|-x-x---x-x-x---x-x-x---x-x-x---x-|--x-x---x-x-x---x-x-x---x-x-x---x----|
|-x-x---x-x-x---x-x-x---x-x-x---x-|--x-x---x-x-x---x-x-x---x-x-x---x----|
|
|                                    TP
| H               Q       Q          W
|---------------------------------|-------------------------------------|
|---------------------------------|-------------------------------------|
|---------------------------------|-------------------------------------|
|---------------------------------|-------------------------------------|
|---------------------------------|-------------------------------------|
|-------------------------xs======|=17s=================================|


 4/4
   S S S S S S S S S S S S S S S S
|----------------------------------|
|----------------------------------|
|----------------------------------|
|----------------------------------|
|--x-x---x-x-x---x-x-x---x-x-x-x-x-|
|--x-x---x-x-x---x-x-x---x-x-x-x-x-|
|
|  TP
|  W
|----------------------------------|
|----------------------------------|
|----------------------------------|
|----------------------------------|
|----------------------------------|
|-19-------------------------------|


  D5   F5D5 F5D5             D5   F5D5 F5D5
    E. S E. S E. S S S S S     E. S E. S E. S S S S S
|--------------------------|----------------------------|
|--------------------------|----------------------------|
|--------------------------|----------------------------|
|--------------------------|----------------------------|
|---0--3-0--3-0--x-x-x-x-x-|---0--3-0--3-0--x-x-x-x-x---|
|---0--3-0--3-0--x-x-x-x-x-|---0--3-0--3-0--x-x-x-x-x---|
|
|   TP                         TP
|  +W                         +W
|--------------------------|----------------------------|
|--------------------------|----------------------------|
|--------------------------|----------------------------|
|--------------------------|----------------------------|
|--------------------------|----------------------------|
|-(19)---------------------|-(19)-----------------------|


  D5   F5D5 F5D5
 4/4
    E. S E. S  E.S S S S S
|--------------------------|
|--------------------------|
|--------------------------|
|--------------------------|
|---0--3-0--3--0-x-x-x-x-x-|
|---0--3-0--3--0-x-x-x-x-x-|
|
|   TP         TP
|  +H          H
|--------------------------|
|--------------------------|
|--------------------------|
|--------------------------|
|--------------------------|
|-(19)s=======20s==========|


  D5 F5D5 F5D5             D5   F5D5 F5D5
   E.S E. S  E. S a  Q       E. S E. S  E.S S S S S
|------------------------|---------------------------|
|------------------------|---------------------------|
|------------------------|---------------------------|
|------------------------|---------------------------|
|--0-3-0--3--0--x--------|---0--3-0--3--0-x-x-x-x-x--|
|--0-3-0--3--0--x-0S12\--|---0--3-0--3--0-x-x-x-x-x--|
|
|  TP        TP              TP         TP
|  H         H              +H          H
|------------------------|---------------------------|
|------------------------|---------------------------|
|------------------------|---------------------------|
|------------------------|---------------------------|
|------------------------|---------------------------|
|-21s=======22-----------|-(22)s=======21s===========|


  D5 F5D5 F5D5             D5 F5D5 F5D5
 4/4
   E.S E. S  E.S S S S S    E.S E. S  E. S S S S S
|------------------------|-------------------------|
|------------------------|-------------------------|
|------------------------|-------------------------|
|------------------------|-------------------------|
|--0-3-0--3--0-x-x-x-x-x-|--0-3-0--3--0--x-x-x-x-x-|
|--0-3-0--3--0-x-x-x-x-x-|--0-3-0--3--0--x-x-x-x-x-|
|
|  TP        TP             TP        TP
|  H         H              H         H
|------------------------|-------------------------|
|------------------------|-------------------------|
|------------------------|-------------------------|
|------------------------|-------------------------|
|------------------------|-------------------------|
|-20s=======19s==========|=18s=======17------------|


  D5    F5D5
    E.  S E. S S S S S S S S S
|------------------------------||
|------------------------------||
|------------------------------||
|------------------------------||
|---0---3-0--x-x-x---x-x-x---x-||
|---0---3-0--x-x-x---x-x-x---x-||
|
|   TP
|  +W
|------------------------------||
|------------------------------||
|------------------------------||
|------------------------------||
|------------------------------||
|-(17)\------------------------||


   Verse
    D5 F5D5 F5D5             D5 F5D5 F5D5             D5 F5D5 F5D5
   4/4
    E. S E. S E. S S S S S   E. S E. S E. S S S S S   E. S E. S E. S S S S S
||-------------------------|------------------------|-------------------------|
||o------------------------|------------------------|-------------------------|
||-------------------------|------------------------|-------------------------|
||-------------------------|------------------------|-------------------------|
||o-0--3-0--3-0--x-x-x-x-x-|-0--3-0--3-0--x-x-x-x-x-|-0--3-0--3-0--x-x-x-x-x--|
||--0--3-0--3-0--x-x-x-x-x-|-0--3-0--3-0--x-x-x-x-x-|-0--3-0--3-0--x-x-x-x-x--|


  D5 F5D5 F5D5             D5 F5D5 F5D5             D5 F5D5 F5D5
 4/4
  E. S E. S E. S S S S S   E. S E. S E. S S S S S   E. S E. S E. S S S S S
|------------------------|------------------------|------------------------|
|------------------------|------------------------|------------------------|
|------------------------|------------------------|------------------------|
|------------------------|------------------------|------------------------|
|-0--3-0--3-0--x-x-x-x-x-|-0--3-0--3-0--x-x-x-x-x-|-0--3-0--3-0--x-x-x-x-x-|
|-0--3-0--3-0--x-x-x-x-x-|-0--3-0--3-0--x-x-x-x-x-|-0--3-0--3-0--x-x-x-x-x-|


  D5 F5D5 F5D5             D5 F5D5 F5D5
 4/4
  E. S E. S E. S S S S S   E. S E. S E. S S S S S
|------------------------|------------------------||
|------------------------|------------------------||
|------------------------|------------------------||
|------------------------|------------------------||
|-0--3-0--3-0--x-x-x-x-x-|-0--3-0--3-0--x-x-x-x-x-||
|-0--3-0--3-0--x-x-x-x-x-|-0--3-0--3-0--x-x-x-x-x-||


 Pre Chorus
  Q=116
 4/4
  E. S E. S E. S S   +E  S
|--------------------------|
|--------------------------|
|--------------------------|
|--------------------------|
|--------------------------|
|-0--3-0--3-0--3-5b6r(5)-3-|


  E. S E. S E. S S   +E  S   E. S E. S E. S S   +E  S
|--------------------------|--------------------------|
|--------------------------|--------------------------|
|--------------------------|--------------------------|
|--------------------------|--------------------------|
|--------------------------|--------------------------|
|-0--3-0--3-0--3-5b6r(5)-3-|-0--3-0--3-0--3-5b6r(5)-3-|


 4/4
  E. S E. S E. S S   +E  S
|--------------------------|
|--------------------------|
|--------------------------|
|--------------------------|
|--------------------------|
|-0--3-0--3-0--3-5b6r(5)-3-|


  D5 F5D5 F5D5 F5G5      F5  D5 F5D5 F5D5 F5        F5
  E. S E. S E. S S   +E  S   E. S E. S E. S S   +E  S
|--------------------------|--------------------------|
|--------------------------|--------------------------|
|--------------------------|--------------------------|
|--------------------------|--------------------------|
|-0--3-0--3-0--3-5b6r(5)-3-|-0--3-0--3-0--3-5b6r(5)-3-|
|-0--3-0--3-0--3-5b6r(5)-3-|-0--3-0--3-0--3-5b6r(5)-3-|


  D5 F5D5 F5D5 F5G5      F5  D5 F5D5                     D5   F5
 4/4
  E. S E. S E. S S   +E  S   E. S E. S S S S S S S S S   H    H
|--------------------------|---------------------------|-----------||
|--------------------------|---------------------------|-----------||
|--------------------------|---------------------------|-----------||
|--------------------------|---------------------------|-----------||
|-0--3-0--3-0--3-5b6r(5)-3-|-0--3-0--x-x-x---x-x-x---x-|-0----3----||
|-0--3-0--3-0--3-5b6r(5)-3-|-0--3-0--x-x-x---x-x-x---x-|-0----3----||


 Chorus
  Q=120
  Bb5                                               D5 F5
 4/4
  S S S S S S S S S S S S S S S S   S S S S S S S S Q  Q
|---------------------------------|-----------------------|
|---------------------------------|-----------------------|
|---------------------------------|-----------------------|
|-8-8-8-8-8-8-8-8-8-8-8-8-8-8-8-8-|-8-8-8-8-8-8-8-8-------|
|-8-8-8-8-8-8-8-8-8-8-8-8-8-8-8-8-|-8-8-8-8-8-8-8-8-0--3--|
|-8-8-8-8-8-8-8-8-8-8-8-8-8-8-8-8-|-8-8-8-8-8-8-8-8-0--3--|


  G5                                                D5 F5
 4/4
  S S S S S S S S S S S S S S S S   S S S S S S S S Q  Q
|---------------------------------|-----------------------|
|---------------------------------|-----------------------|
|---------------------------------|-----------------------|
|-5-5-5-5-5-5-5-5-5-5-5-5-5-5-5-5-|-5-5-5-5-5-5-5-5-------|
|-5-5-5-5-5-5-5-5-5-5-5-5-5-5-5-5-|-5-5-5-5-5-5-5-5-0--3--|
|-5-5-5-5-5-5-5-5-5-5-5-5-5-5-5-5-|-5-5-5-5-5-5-5-5-0--3--|


  Bb5                                               D5 F5
 4/4
  S S S S S S S S S S S S S S S S   S S S S S S S S Q  Q
|---------------------------------|-----------------------|
|---------------------------------|-----------------------|
|---------------------------------|-----------------------|
|-8-8-8-8-8-8-8-8-8-8-8-8-8-8-8-8-|-8-8-8-8-8-8-8-8-------|
|-8-8-8-8-8-8-8-8-8-8-8-8-8-8-8-8-|-8-8-8-8-8-8-8-8-0--3--|
|-8-8-8-8-8-8-8-8-8-8-8-8-8-8-8-8-|-8-8-8-8-8-8-8-8-0--3--|


                                   1.
  G5
 4/4
                                                     ~~
  S S S S S S S S S S S S S S S S   S S S S S S S S  H
|---------------------------------|-----------------------|
|---------------------------------|-----------------------|
|---------------------------------|-----------------------|
|-5-5-5-5-5-5-5-5-5-5-5-5-5-5-5-5-|-5-5-5-5-5-5-5-5-------|
|-5-5-5-5-5-5-5-5-5-5-5-5-5-5-5-5-|-5-5-5-5-5-5-5-5-------|
|-5-5-5-5-5-5-5-5-5-5-5-5-5-5-5-5-|-5-5-5-5-5-5-5-5-/7----|


  D5 F5D5 F5D5             D5 F5D5 F5D5
 4/4
  E. S E. S E. S S S S S   E. S E. S E. S S S S S
|------------------------|------------------------|
|------------------------|------------------------|
|------------------------|------------------------|
|------------------------|------------------------|
|-0--3-0--3-0--x-x-x-x-x-|-0--3-0--3-0--x-x-x-x-x-|
|-0--3-0--3-0--x-x-x-x-x-|-0--3-0--3-0--x-x-x-x-x-|


  D5 F5D5 F5D5             D5 F5D5
  E. S E. S E. S S S S S   E. S E. S S S S S S S S S
|------------------------|----------------------------||
|------------------------|---------------------------o||
|------------------------|----------------------------||
|------------------------|----------------------------||
|-0--3-0--3-0--x-x-x-x-x-|-0--3-0--x-x-x---x-x-x---x-o||
|-0--3-0--3-0--x-x-x-x-x-|-0--3-0--x-x-x---x-x-x---x--||


  2.
  G5
 2/4               4/4
                    ~~~~~~~~~~~~~~~~~~~~~~~~~~~~~~~~~
  S S S S S S S S   W          +H      H        +H.        E E
|-----------------|----------|---------------|------------------||
|-----------------|----------|---------------|------------------||
|-----------------|----------|---------------|------------------||
|-5-5-5-5-5-5-5-5-|-6--------|-(6)----[6]----|-([6])------------||
|-5-5-5-5-5-5-5-5-|----------|---------------|------------------||
|-5-5-5-5-5-5-5-5-|----------|---------------|------------11S0--||


 Bridge
  Q=116
  D5F5G5D5F5F#D5        D5F5G5D5F5F#D5        D5F5G5D5F5F#D5
 4/4
  E E E E E S S S S E   E E E E E S S S S E   E E E E E S S S S E
|---------------------|---------------------|---------------------|
|---------------------|---------------------|---------------------|
|---------------------|---------------------|---------------------|
|-0-3-5-0-3-4-0---x---|-0-3-5-0-3-4-0---x---|-0-3-5-0-3-4-0---x---|
|-0-3-5-0-3-4-0---x---|-0-3-5-0-3-4-0---x---|-0-3-5-0-3-4-0---x---|
|-0-3-5-0-3-4-0---x---|-0-3-5-0-3-4-0---x---|-0-3-5-0-3-4-0---x---|


  D5F5G5D5F5F#D5          D5F5G5D5F5F#D5          D5F5G5D5F5F#D5
 4/4
  E E E E E S S S S S S   E E E E E S S S S S S   E E E E E S S S S S S
|-----------------------|-----------------------|-----------------------|
|-----------------------|-----------------------|-----------------------|
|-----------------------|-----------------------|-----------------------|
|-0-3-5-0-3-4-0---x---x-|-0-3-5-0-3-4-0---x---x-|-0-3-5-0-3-4-0---x---x-|
|-0-3-5-0-3-4-0---x---x-|-0-3-5-0-3-4-0---x---x-|-0-3-5-0-3-4-0---x---x-|
|-0-3-5-0-3-4-0---x---x-|-0-3-5-0-3-4-0---x---x-|-0-3-5-0-3-4-0---x---x-|


  D5F5G5D5F5F#D5          D5F5G5D5F5F#D5          D5F5G5D5F5F#D5
 4/4
  E E E E E S S S S S S   E E E E E S S S S S S   E E E E E E S E S
|-----------------------|-----------------------|--------------------|
|-----------------------|-----------------------|--------------------|
|-----------------------|-----------------------|--------------------|
|-0-3-5-0-3-4-0---x---x-|-0-3-5-0-3-4-0---x---x-|-0-3-5-0-3-4-0-0-0--|
|-0-3-5-0-3-4-0---x---x-|-0-3-5-0-3-4-0---x---x-|-0-3-5-0-3-4-0-0-0--|
|-0-3-5-0-3-4-0---x---x-|-0-3-5-0-3-4-0---x---x-|-0-3-5-0-3-4-0-0-0--|


  D5F5G5D5F5F#D5        F5G5D5F5F#D5      D5
 4/4
  E E E E E E S E S   E E E E E E S E S   E E H    S S S S
|-------------------|-------------------|------------------||
|-------------------|-------------------|----------x-x-x-x-||
|-------------------|-------------------|------------------||
|-0-3-5-0-3-4-0-0-0-|-0-3-5-0-3-4-0-0-0-|-0----------------||
|-0-3-5-0-3-4-0-0-0-|-0-3-5-0-3-4-0-0-0-|-0----------------||
|-0-3-5-0-3-4-0-0-0-|-0-3-5-0-3-4-0-0-0-|-0----------------||


 Guitar Solo
  Q=120
  D5  F5D5   F5D5  F5D5   G5  F5    G5F5    G5F5    G5F5    G5
 4/4
  Gtrs I, II
   E. S E.   S  E. S E.   S    E.   S  E.   S  E.   S  E.   S
|---------------------------|---------------------------------|
|---------------------------|---------------------------------|
|---------------------------|---------------------------------|
|---------------------------|---------------------------------|
|--0--3-0----3--0--3-0----5-|--3----5--3----5--3----5--3----5-|
|--0--3-0----3--0--3-0----5-|--3----5--3----5--3----5--3----5-|
|
| Gtr III
|  ~~~          ~~~            ~~~     ~~~     ~~~
|  Q.      S S  Q.      S S    E  S S  E  S S  E  S S  Q
|-20-----------20-----------|-20------22------24------24b25---|
|----------x-x----------x-x-|-----x-x-----x-x-----x-x---------|
|---------------------------|---------------------------------|
|---------------------------|---------------------------------|
|---------------------------|---------------------------------|
|---------------------------|---------------------------------|


  D5                F5   D5                 F5   D5                 F5   D5                 G5
 4/4
    E.              S     E.                S     E.                S     E.                S
|-------------------------------------------------------------------------------------------------|
|-------------------------------------------------------------------------------------------------|
|-------------------------------------------------------------------------------------------------|
|-------------------------------------------------------------------------------------------------|
|---0---------------3-----0-----------------3-----0-----------------3-----0-----------------5-----|
|---0---------------3-----0-----------------3-----0-----------------3-----0-----------------5-----|
|
|   |--------6---------|               |---3---|               |---3---|               |---3---|
|  +S    S  S  S  S    S  T   T  T  T  S  S    S  T   T  T  T  S  S    S  T   T  T  T  S  S    S
|-(24)\-------------------------------------------------------------------------------------------|
|-------10---------------10-------------------10-13--10---------------10-15--10---------------10--|
|----------10-12-12---13-----13-12-10-12-12-------------12-10-12-12-------------12-10-12-12-------|
|-------------------------------------------------------------------------------------------------|
|-------------------------------------------------------------------------------------------------|
|-------------------------------------------------------------------------------------------------|


  F5                 G5   F5                 G5   F5                 G5   F5              G5
 4/4
   E.                S     E.                S     E.                S     E.              S
|--------------------------------------------------------------------------------------------|
|--------------------------------------------------------------------------------------------|
|--------------------------------------------------------------------------------------------|
|--------------------------------------------------------------------------------------------|
|--3-----------------5-----3-----------------5-----3-----------------5-----3---------------5-|
|--3-----------------5-----3-----------------5-----3-----------------5-----3---------------5-|
|
|               |---3---|               |---3---|               |---3---|
|  T   T  T  T  S  S    S  T   T  T  T  S  S    S  T   T  T  T  S  S    S  T   T  T  T  S  S
|--------------------------------------------------------------------------------------------|
|-13--10---------------10-15--10---------------10-13--10---------------10-15--10----------14-|
|--------12-10-12-12-------------12-10-12-12-------------12-10-12-12-------------12-10-12----|
|--------------------------------------------------------------------------------------------|
|--------------------------------------------------------------------------------------------|
|--------------------------------------------------------------------------------------------|


  D5                 F5    D5                 F5   D5              F5    D5                 G5
 4/4
   E.                 S     E.                S     E.              S     E.                 S
|--------------------------------------------------------------------------------------------------|
|--------------------------------------------------------------------------------------------------|
|--------------------------------------------------------------------------------------------------|
|--------------------------------------------------------------------------------------------------|
|--0------------------3-----0-----------------3-----0---------------3-----0------------------5-----|
|--0------------------3-----0-----------------3-----0---------------3-----0------------------5-----|
|
|                                        |---3---|  |--3---|
|  T   T  T  T  T  T  T  T  T   T  T  T  S  S    S  S   S  S  T  T  T  T  T   T  T  T  T  T  T  T
|-13-----------17-17-17-----------17---------------16--------16-16-16-----------13----------17-----|
|-----15-13-15----------15-13--15----15-13-15---15-----15-13----------15-13--15----15-13-15----15--|
|--------------------------------------------------------------------------------------------------|
|--------------------------------------------------------------------------------------------------|
|--------------------------------------------------------------------------------------------------|
|--------------------------------------------------------------------------------------------------|


  F5              G5   F5              G5   F5                 G5    F5              G5
 4/4
   E.             S     E.             S     E.                 S     E.             S
|--------------------------------------------------------------------------------------|
|--------------------------------------------------------------------------------------|
|--------------------------------------------------------------------------------------|
|--------------------------------------------------------------------------------------|
|--3--------------5-----3--------------5-----3------------------5-----3--------------5-|
|--3--------------5-----3--------------5-----3------------------5-----3--------------5-|
|
|  |--------6--------|  |--------6--------|                           |--3---|
|  S   S  S  S  S    S  S   S  S  S  S    S  T   T  T  T  T  T  T  T  S   S  S  E
|--------17-17-17---------------------------16-----------16-16-------16--16----16b17---|
|-13--15------------15-13--15-15-13-13---15-----15-13-15-------15-13--------15---------|
|--------------------------------------------------------------------------------------|
|--------------------------------------------------------------------------------------|
|--------------------------------------------------------------------------------------|
|--------------------------------------------------------------------------------------|


  D5   F5D5 F5D5    F5D5 G5
 4/4
    E. S E. S  E.   S E. S
|--------------------------|
|--------------------------|
|--------------------------|
|--------------------------|
|---0--3-0--3--0----3-0--5-|
|---0--3-0--3--0----3-0--5-|
|
|   ~~~~~~~~~~~~~~~~~~~~~~~~
|  +H          H
|-(16)--------19b20--------|
|--------------------------|
|--------------------------|
|--------------------------|
|--------------------------|
|--------------------------|


  F5    G5F5                                            D5 F5
   E.   S  E.   S  S    S S S S S S S   S S S S S S S S Q  Q
|-------------------------------------|-----------------------||
|-------------------------------------|-----------------------||
|-------------------------------------|-----------------------||
|-------------------------------------|-----------------------||
|--3----5--3----x--x----x---x-x-x---x-|-x-x---x-x-x---x-0--3--||
|--3----5--3----x--x----x---x-x-x---x-|-x-x---x-x-x---x-0--3--||
|
|~~~~~~~~~~~~~~~~~~~~~~~
|  Q       Q       Q          Q         W
|-21b22---24b25---24b27---------------|-----------------------||
|-------------------------------------|-----------------------||
|-------------------------------------|-----------------------||
|-------------------------------------|-----------------------||
|-------------------------------------|-----------------------||
|-------------------------------------|-----------------------||


   Chorus
    Bb5                                               D5 F5
   4/4
    S S S S S S S S S S S S S S S S   S S S S S S S S Q  Q
||----------------------------------|-----------------------|
||o---------------------------------|-----------------------|
||----------------------------------|-----------------------|
||--8-8-8-8-8-8-8-8-8-8-8-8-8-8-8-8-|-8-8-8-8-8-8-8-8-------|
||o-8-8-8-8-8-8-8-8-8-8-8-8-8-8-8-8-|-8-8-8-8-8-8-8-8-0--3--|
||--8-8-8-8-8-8-8-8-8-8-8-8-8-8-8-8-|-8-8-8-8-8-8-8-8-0--3--|


  G5                                                D5 F5
 4/4
  S S S S S S S S S S S S S S S S   S S S S S S S S Q  Q
|---------------------------------|------------------------||
|---------------------------------|-----------------------o||
|---------------------------------|------------------------||
|-5-5-5-5-5-5-5-5-5-5-5-5-5-5-5-5-|-5-5-5-5-5-5-5-5--------||
|-5-5-5-5-5-5-5-5-5-5-5-5-5-5-5-5-|-5-5-5-5-5-5-5-5-0--3--o||
|-5-5-5-5-5-5-5-5-5-5-5-5-5-5-5-5-|-5-5-5-5-5-5-5-5-0--3---||


  Bb5                                               D5 F5
 4/4
  S S S S S S S S S S S S S S S S   S S S S S S S S Q  Q
|---------------------------------|-----------------------|
|---------------------------------|-----------------------|
|---------------------------------|-----------------------|
|-8-8-8-8-8-8-8-8-8-8-8-8-8-8-8-8-|-8-8-8-8-8-8-8-8-------|
|-8-8-8-8-8-8-8-8-8-8-8-8-8-8-8-8-|-8-8-8-8-8-8-8-8-0--3--|
|-8-8-8-8-8-8-8-8-8-8-8-8-8-8-8-8-|-8-8-8-8-8-8-8-8-0--3--|


  G5                                               D5   F5
 4/4                               2/4            4/4
  S S S S S S S S S S S S S S S S   S S S S S E.   H    H
|---------------------------------|--------------|-----------|
|---------------------------------|--------------|-----------|
|---------------------------------|--------------|-----------|
|-5-5-5-5-5-5-5-5-5-5-5-5-5-5-5-5-|-5-5-5-5-5-5--|-----------|
|-5-5-5-5-5-5-5-5-5-5-5-5-5-5-5-5-|-5-5-5-5-5-5--|-0----3----|
|-5-5-5-5-5-5-5-5-5-5-5-5-5-5-5-5-|-5-5-5-5-5-5--|-0----3----|


  Bb5                                               D5 F5
 4/4
  S S S S S S S S S S S S S S S S   S S S S S S S S Q  Q
|---------------------------------|-----------------------|
|---------------------------------|-----------------------|
|---------------------------------|-----------------------|
|-8-8-8-8-8-8-8-8-8-8-8-8-8-8-8-8-|-8-8-8-8-8-8-8-8-------|
|-8-8-8-8-8-8-8-8-8-8-8-8-8-8-8-8-|-8-8-8-8-8-8-8-8-0--3--|
|-8-8-8-8-8-8-8-8-8-8-8-8-8-8-8-8-|-8-8-8-8-8-8-8-8-0--3--|


  G5
 4/4
                                                     ~~
  S S S S S S S S S S S S S S S S   S S S S S S S S  H
|---------------------------------|-----------------------||
|---------------------------------|-----------------------||
|---------------------------------|-----------------------||
|-5-5-5-5-5-5-5-5-5-5-5-5-5-5-5-5-|-5-5-5-5-5-5-5-5-------||
|-5-5-5-5-5-5-5-5-5-5-5-5-5-5-5-5-|-5-5-5-5-5-5-5-5-------||
|-5-5-5-5-5-5-5-5-5-5-5-5-5-5-5-5-|-5-5-5-5-5-5-5-5-/7----||


 Outro
  D5F5G5D5F5F#D5          D5F5G5D5F5F#D5          D5F5G5D5F5F#D5
 4/4
  E E E E E S S S S S S   E E E E E S S S S S S   E E E E E S S S S S S
|-----------------------|-----------------------|-----------------------|
|-----------------------|-----------------------|-----------------------|
|-----------------------|-----------------------|-----------------------|
|-0-3-5-0-3-4-0---x---x-|-0-3-5-0-3-4-0---x---x-|-0-3-5-0-3-4-0---x---x-|
|-0-3-5-0-3-4-0---x---x-|-0-3-5-0-3-4-0---x---x-|-0-3-5-0-3-4-0---x---x-|
|-0-3-5-0-3-4-0---x---x-|-0-3-5-0-3-4-0---x---x-|-0-3-5-0-3-4-0---x---x-|


  D5F5G5D5F5F#D5          D5F5G5D5F5F#D5          D5F5G5D5F5F#D5
 4/4
  E E E E E S S S S S S   E E E E E S S S S S S   E E E E E S S S S S S
|-----------------------|-----------------------|-----------------------|
|-----------------------|-----------------------|-----------------------|
|-----------------------|-----------------------|-----------------------|
|-0-3-5-0-3-4-0---x---x-|-0-3-5-0-3-4-0---x---x-|-0-3-5-0-3-4-0---x---x-|
|-0-3-5-0-3-4-0---x---x-|-0-3-5-0-3-4-0---x---x-|-0-3-5-0-3-4-0---x---x-|
|-0-3-5-0-3-4-0---x---x-|-0-3-5-0-3-4-0---x---x-|-0-3-5-0-3-4-0---x---x-|


  D5F5G5D5F5F#D5          D5F5G5D5F5F#D5
 4/4
  E E E E E S S S S S S   E E E E E S S S S E
|-----------------------|---------------------*|
|-----------------------|---------------------*|
|-----------------------|---------------------*|
|-0-3-5-0-3-4-0---x---x-|-0-3-5-0-3-4-0---x---*|
|-0-3-5-0-3-4-0---x---x-|-0-3-5-0-3-4-0---x---*|
|-0-3-5-0-3-4-0---x---x-|-0-3-5-0-3-4-0---x---*|



Duration Legend
---------------
W - whole; H - half; Q - quarter; E - 8th; S - 16th; T - 32nd; X - 64th; a - acciaccatura
+ - note tied to previous; . - note dotted; .. - note double dotted
Uncapitalized letters represent notes that are staccato (1/2 duration)
Irregular groupings are notated above the duration line
Duration letters will always appear directly above the note/fret number it represents the
duration for.  Duration letters with no fret number below them represent rests.  Multi-
bar rests are notated in the form Wxn, where n is the number of bars to rest for.  Low
melody durations appear below the staff

Tablature Legend
----------------
 h   - hammer-on
 p   - pull-off
 b   - bend
 pb  - pre-bend
 r   - bend release (if no number after the r, then release immediately)
 /\  - slide into or out of (from/to "nowhere")
 s   - legato slide
 S   - shift slide
 - natural harmonic
[n]  - artificial harmonic
n(n) - tapped harmonic
 ~   - vibrato
 tr  - trill
 T   - tap
 TP  - trem. picking
 PM  - palm muting
\n/  - tremolo bar dip; n = amount to dip
 \n  - tremolo bar down
 n/  - tremolo bar up
/n\  - tremolo bar inverted dip
 =   - hold bend; also acts as connecting device for hammers/pulls
 <> - volume swell (louder/softer)
 x   - on rhythm slash represents muted slash
 o   - on rhythm slash represents single note slash

Misc Legend
-----------
 |  - bar
||  - double bar
||o - repeat start
o|| - repeat end
*|  - double bar (ending)
 :  - bar (freetime)
 $  - Segno
 &  - Coda
Tempo markers -  = BPM(8/16=s8/s16), where s8 = swing 8ths, s16 = swing 16ths

Tap to rate this tab
# A B C D E F G H I J K L M N O P Q R S T U V W X Y Z