Song name
# A B C D E F G H I J K L M N O P Q R S T U V W X Y Z

Anthrax - Fight Em Till You Cant tab

Fight Em Till You Can't by Anthrax off the 2011 album Worship Music.

Riff 1 0:08-0:20

eb|-------------|
Bb|-------------|
Gb|-------------|
Db|--5----5-----|   x4
Ab|--3-4--3-2---|
Eb|----2----2---|

Riff 2 0:20-0:41

eb|------------------------------------------------|
Bb|------------------------------------------------|
Gb|------------------------------------------------|
Db|------------------------------------------------|   x4
Ab|----3-3-3-3-3-3-3-3-3s4-------------------------|
Eb|-0h2-2-2-2-2-2-2-2-2---222222222222222222222222-|

Riff 3 0:41-0:44

eb|---------------|
Bb|---------------|
Gb|---------------|
Db|---------------|
Ab|--3-4---3-4----|
Eb|--2-3---2-3----|

Verse Riff 0:44-1:13

eb|-------------------------------------------|               ---------|
Bb|-------------------------------------------|               ---------|
Gb|-------------------------------------------|  Play this at ---------|
Db|-------------------------------------------|  1:13-1:14    -6-6-6~--|
Ab|---4-4---4-4----4-5-4----5-5---5-5-----4h5-|               --5-5----|
Eb|-0h2-2-0h2-2---02s3s2--0h3-3-0h3-3--0h3----|               ---------|

Back to Riff 2 (1:15-1:32) then Riff 3 (1:33-1:35)

Chorus Riff 1:36-1:53

eb|-----------------------------|
Bb|-----------------------------|
Gb|-----------------------------|
Db|-4- x12 -2- x12 -------4- x12|
Ab|-2-------0------5 x12 -2-----|
Eb|----------------3------------|

Riff 1 1:54-1:57

Verse riff 1:58-2:29

Riff 2 2:30-2:47

Riff 3 2:48-2:49

Chorus Riff 2:50-3:10

Riff 1 3:11-3:20

Riff 4 3:21-3:24

eb|-----------|
Bb|-----------|
Gb|-----------|
Db|-----------|   x3
Ab|-3-3-------|
Eb|--2-222222-|

Octave Part - Guitar 1

eb|------------------------------------------------| Play this part once
Bb|------------------------------------------------| before harmonising
Gb|------------------------------------------------|
Db|-------------2h3p2p0----------------------------|
Ab|--------2h455-------55p4p2----------------------|
Eb|--2h4s55------------------55p4p2----------------|

Riff 4 inbetween

Octave Part - Guitar 2

eb|------------------------------------------------|
Bb|------------------------------------------------|
Gb|------------------------------------------------|
Db|--------------------9h10p9h10-------------------|
Ab|-----------9h11-1212---------1212p11p9----------|
Eb|--9h11-1212---------------------------1212p11p9-|

Solo

eb|------------------------------------------------------|
Bb|------------------------10-------15-14---15-14---15-14|
Gb|--------7----------7-9-9--9-7-6-------14------15------|
Db|--7h9-9--9-9----7h9-----------------------------------|
Ab|------------------------------------------------------|
Eb|------------------------------------------------------|
Speed Pick         |
eb|------------------------17------------------17------------|
Bb|-s12-s14-s15-s17--17b19---17b19-17b19-15b17---14-15p14p12-|
Gb|----------------------------------------------------------|
Db|----------------------------------------------------------|
Ab|----------------------------------------------------------|
Eb|----------------------------------------------------------|

eb|--21h22p21h22p21h22p21---|    eb|-21~-21p17---|
Bb|----------------------22-|    Bb|----------19-|
Gb|-------------------------| X5 Gb|-------------| x4
Db|-------------------------|    Db|-------------|
Ab|-------------------------|    Ab|-------------|
Eb|-------------------------|    Eb|-------------|

eb|-19b21-22b24|
Bb|------------|
Gb|------------|
Db|------------|
Ab|------------|
Eb|------------|

Riff 2 4:15-4:43

Riff 3 4:44-4:46

Chorus Riff 4:47-5:19

Speed pick Chorus at 5:19-5:27

Riff 1 5:28-5:48
Tap to rate this tab
# A B C D E F G H I J K L M N O P Q R S T U V W X Y Z