Song name
# A B C D E F G H I J K L M N O P Q R S T U V W X Y Z

Anthrax - In The End tab

Anthrax
In The End
Worship Music
2011
Tuning: Drop C#
+ = Palm Mute


It is HIGHLY suggested that you listen to the song

Intro
|-----------------------------------------------|
|-----------------------------------------------|
|-----------------------------------------------|
|-----------------------------------------------|X4
|-----------------------------------------------|
|-0h12h15--0--0--0h12h15--0--0h12h15-0h12h15--0-|
           +  +           +                   +
Over the Intro riff
|--------------------------------------------------------|
|--------------------------------------------------------|
|-------11~~-----12~----14~------7~-----7---7--7h9h7-----|
|--------------------------------0~----------------------|
|-0~~---9~~------10~----12~------5~-----5---5--5h7h7-----|
|-0~~----------------------------0~-0-----0--------------|

|---------------|
|---------------|
|-7~~---7~------|
|-7~~---6~------|X2
|-5~~---5~------|
|-0~~---0~------|


After Intro
|-------------------------------------|
|-------------------------------------|
|-------------------------------------|
|-------------------------------------|X4
|-------------------------------------|
|-0-0-3-0--0---0-0-3-0--0-0-3-0-0-3-0-|
Tap to rate this tab
# A B C D E F G H I J K L M N O P Q R S T U V W X Y Z