Song name
# A B C D E F G H I J K L M N O P Q R S T U V W X Y Z

Anthrax - Fueled tab

#----------------------------------PLEASE NOTE---------------------------------#
#This file is the author's own work and represents their interpretation of the #
#song. You may only use this file for private study, scholarship, or research. #
#------------------------------------------------------------------------------#

FUELED
As recorded by Anthrax
(From the 1995 Album STOMP 442)

Transcribed by Mike Sheehan
	

Words by Scott Ian and John Bush Music by Charlie Benante

D5
0 0 0 x x x
	
F5
3 3 3 x x x
	
G5
5 5 5 x x x
	
C5
10 10 10 x x x

Amadd4/D
0 5 7 5 x x

Gtr I (D A D G B E) - 'Scott Ian'
Gtr II (D A D G B E) - 'Scott Ian'

 Intro
  Q=92
  F5D5F5  D5F5  D5F5D5       F5D5F5  D5F5  D5F5D5
 4/4
  Gtr I
  S S S S S S S S S S E Q    S S S S S S S S S S E Q
|--------------------------|--------------------------|
|--------------------------|--------------------------|
|--------------------------|--------------------------|
|--------------------------|--------------------------|
|-3-0-3-3-0-3-3-0-3-0-0----|-3-0-3-3-0-3-3-0-3-0-0----|
|-3-0-3-3-0-3-3-0-3-0-0----|-3-0-3-3-0-3-3-0-3-0-0----|
|
| Gtr II
| W                          S S S S S S S S S S E Q
|--------------------------|--------------------------|
|--------------------------|--------------------------|
|--------------------------|--------------------------|
|--------------------------|--------------------------|
|--------------------------|-3-0-3-3-0-3-3-0-3-0-0----|
|--------------------------|-3-0-3-3-0-3-3-0-3-0-0----|


    F5D5F5  D5F5  D5F5D5       F5D5F5  D5F5  D5F5D5
    Gtrs I, II
    S S S S S S S S S S E Q    S S S S S S S S S S E Q
||---------------------------|---------------------------||
||o--------------------------|--------------------------o||
||---------------------------|---------------------------||
||---------------------------|---------------------------||
||o-3-0-3-3-0-3-3-0-3-0-0----|-3-0-3-3-0-3-3-0-3-0-0----o||
||--3-0-3-3-0-3-3-0-3-0-0----|-3-0-3-3-0-3-3-0-3-0-0-----||


   Verse
    F5D5F5  D5F5  D5F5D5F5  D5F5  D5  F5D5F5  D5F5  D5F5D5F5  D5F5  D5
    PM--------------------------------------------------------------|
    S S S S S S S S S S S S S S S S   S S S S S S S S S S S S S S S S
||----------------------------------|-----------------------------------||
||o---------------------------------|----------------------------------o||
||----------------------------------|-----------------------------------||
||----------------------------------|-----------------------------------||
||o-3-0-3-3-0-3-3-0-3-0-3-3-0-3-3-0-|-3-0-3-3-0-3-3-0-3-0-3-3-0-3-3-0--o||
||--3-0-3-3-0-3-3-0-3-0-3-3-0-3-3-0-|-3-0-3-3-0-3-3-0-3-0-3-3-0-3-3-0---||


 Pre Chorus
  F5D5F5  D5F5  D5F5D5       F5D5F5  D5F5  D5F5D5F5D5
  S S S S S S S S S S E Q    S S S S S S S S S S S S e E
|--------------------------|-----------------------------|
|--------------------------|-----------------------------|
|--------------------------|-----------------------------|
|--------------------------|-----------------------------|
|-3-0-3-3-0-3-3-0-3-0-0----|-3-0-3-3-0-3-3-0-3-0-3-0-0---|
|-3-0-3-3-0-3-3-0-3-0-0----|-3-0-3-3-0-3-3-0-3-0-3-0-0---|


  F5D5F5  D5F5  D5F5D5
  S S S S S S S S S S E Q
|----------------------------|
|----------------------------|
|----------------------------|
|----------------------------|
|-3-0-3-3-0-3-3-0-3-0-0------|
|-3-0-3-3-0-3-3-0-3-0-0------|


  F5D5F5  D5F5  D5F5D5F5D5
                                    PM----------------------------|
  S S S S S S S S S S S S S S S S   S S S S S S S S S S S S S S S S
|---------------------------------|---------------------------------||
|---------------------------------|---------------------------------||
|---------------------------------|---------------------------------||
|---------------------------------|---------------------------------||
|-3-0-3-3-0-3-3-0-3-0-3-0-0-x-x-x-|---------------------------------||
|-3-0-3-3-0-3-3-0-3-0-3-0-0-x-x-x-|-0-0-0-0-0-0-0-0-0-0-0-0-0-0-0-0-||


   Verse
    Q=98
    F5D5F5  D5F5  D5F5D5F5  D5F5  D5  F5D5F5  D5F5  D5F5D5F5  D5F5  D5
    PM--------------------------------------------------------------|
    S S S S S S S S S S S S S S S S   S S S S S S S S S S S S S S S S
||----------------------------------|-----------------------------------||
||o---------------------------------|----------------------------------o||
||----------------------------------|-----------------------------------||
||----------------------------------|-----------------------------------||
||o-3-0-3-3-0-3-3-0-3-0-3-3-0-3-3-0-|-3-0-3-3-0-3-3-0-3-0-3-3-0-3-3-0--o||
||--3-0-3-3-0-3-3-0-3-0-3-3-0-3-3-0-|-3-0-3-3-0-3-3-0-3-0-3-3-0-3-3-0---||


 Pre Chorus
  F5D5F5  D5F5  D5F5D5       F5D5F5  D5F5  D5F5D5F5D5
  S S S S S S S S S S E Q    S S S S S S S S S S S S e E
|--------------------------|-----------------------------|
|--------------------------|-----------------------------|
|--------------------------|-----------------------------|
|--------------------------|-----------------------------|
|-3-0-3-3-0-3-3-0-3-0-0----|-3-0-3-3-0-3-3-0-3-0-3-0-0---|
|-3-0-3-3-0-3-3-0-3-0-0----|-3-0-3-3-0-3-3-0-3-0-3-0-0---|


  F5D5F5  D5F5  D5F5D5
  S S S S S S S S S S E Q
|----------------------------|
|----------------------------|
|----------------------------|
|----------------------------|
|-3-0-3-3-0-3-3-0-3-0-0------|
|-3-0-3-3-0-3-3-0-3-0-0------|


  F5D5F5  D5F5  D5F5D5F5D5
                                    PM----------------------------|
  S S S S S S S S S S S S S S S S   S S S S S S S S S S S S S S S S
|---------------------------------|---------------------------------||
|---------------------------------|---------------------------------||
|---------------------------------|---------------------------------||
|---------------------------------|---------------------------------||
|-3-0-3-3-0-3-3-0-3-0-3-0-0-x-x-x-|---------------------------------||
|-3-0-3-3-0-3-3-0-3-0-3-0-0-x-x-x-|-0-0-0-0-0-0-0-0-0-0-0-0-0-0-0-0-||


 Chorus
  Q=92
  D5            F5              D5            C5
  Gtrs I, II
  H..       E    H..       E    H..       E     H..        E
|-------------|---------------|-------------|-----------------|
|-------------|---------------|-------------|-----------------|
|-------------|---------------|-------------|-----------------|
|-0---------0-|-/3---------3\-|-0---------0-|-/10---------10\-|
|-0---------0-|-/3---------3\-|-0---------0-|-/10---------10\-|
|-0---------0-|-/3---------3\-|-0---------0-|-/10---------10\-|


  D5            F5             G5              D5
  H..       E    H..       E    H..       E    W
|-------------|--------------|---------------|------||
|-------------|--------------|---------------|------||
|-------------|--------------|---------------|------||
|-0---------0-|-/3---------3-|-/5---------5\-|-0----||
|-0---------0-|-/3---------3-|-/5---------5\-|-0----||
|-0---------0-|-/3---------3-|-/5---------5\-|-0----||


 Interlude
  Q=102
  Amadd4/D
  S S E S S E S S E Q    S S E S S E S S E S S S S
|----------------------|---------------------------|
|----------------------|---------------------------|
|-5-5---5-5---5-5------|-5-5---5-5---5-5-----------|
|-7-7---7-7---7-7------|-7-7---7-7---7-7---x-x-x-x-|
|-5-5---5-5---5-5------|-5-5---5-5---5-5---x-x-x-x-|
|-0-0---0-0---0-0------|-0-0---0-0---0-0---x-x-x-x-|


  Amadd4/D
  S S E S S E S S E Q    S S E S S E S. T E Q
|----------------------|-----------------------||
|----------------------|-----------------------||
|-5-5---5-5---5-5------|-5-5---5-5---5---------||
|-7-7---7-7---7-7------|-7-7---7-7---7---------||
|-5-5---5-5---5-5------|-5-5---5-5---5---------||
|-0-0---0-0---0-0------|-0-0---0-0---0---------||


   Verse
    Q=92
    F5D5F5  D5F5  D5F5D5F5  D5F5  D5  F5D5F5  D5F5  D5F5D5F5  D5F5  D5
    PM--------------------------------------------------------------|
    S S S S S S S S S S S S S S S S   S S S S S S S S S S S S S S S S
||----------------------------------|-----------------------------------||
||o---------------------------------|----------------------------------o||
||----------------------------------|-----------------------------------||
||----------------------------------|-----------------------------------||
||o-3-0-3-3-0-3-3-0-3-0-3-3-0-3-3-0-|-3-0-3-3-0-3-3-0-3-0-3-3-0-3-3-0--o||
||--3-0-3-3-0-3-3-0-3-0-3-3-0-3-3-0-|-3-0-3-3-0-3-3-0-3-0-3-3-0-3-3-0---||


 Pre Chorus
  Q=98
  F5D5F5  D5F5  D5F5D5       F5D5F5  D5F5  D5F5D5F5D5
  S S S S S S S S S S E Q    S S S S S S S S S S S S E E
|--------------------------|-----------------------------|
|--------------------------|-----------------------------|
|--------------------------|-----------------------------|
|--------------------------|-----------------------------|
|-3-0-3-3-0-3-3-0-3-0-0----|-3-0-3-3-0-3-3-0-3-0-3-0-0---|
|-3-0-3-3-0-3-3-0-3-0-0----|-3-0-3-3-0-3-3-0-3-0-3-0-0---|


  F5D5F5  D5F5  D5F5D5
  S S S S S S S S S S E Q
|----------------------------|
|----------------------------|
|----------------------------|
|----------------------------|
|-3-0-3-3-0-3-3-0-3-0-0------|
|-3-0-3-3-0-3-3-0-3-0-0------|


  F5D5F5  D5F5  D5F5D5F5D5
                                    PM----------------------------|
  S S S S S S S S S S S S S S S S   S S S S S S S S S S S S S S S S
|---------------------------------|---------------------------------||
|---------------------------------|---------------------------------||
|---------------------------------|---------------------------------||
|---------------------------------|---------------------------------||
|-3-0-3-3-0-3-3-0-3-0-3-0-0-x-x-x-|---------------------------------||
|-3-0-3-3-0-3-3-0-3-0-3-0-0-x-x-x-|-0-0-0-0-0-0-0-0-0-0-0-0-0-0-0-0-||


 Chorus
  Q=92
  D5            F5              D5            C5
  H..       E    H..       E    H..       E     H..        E
|-------------|---------------|-------------|-----------------|
|-------------|---------------|-------------|-----------------|
|-------------|---------------|-------------|-----------------|
|-0---------0-|-/3---------3\-|-0---------0-|-/10---------10\-|
|-0---------0-|-/3---------3\-|-0---------0-|-/10---------10\-|
|-0---------0-|-/3---------3\-|-0---------0-|-/10---------10\-|


    D5            F5             G5              D5
    H..       E    H..       E    H..       E    W
||--------------|--------------|---------------|-------||
||o-------------|--------------|---------------|------o||
||--------------|--------------|---------------|-------||
||--0---------0-|-/3---------3-|-/5---------5\-|-0-----||
||o-0---------0-|-/3---------3-|-/5---------5\-|-0----o||
||--0---------0-|-/3---------3-|-/5---------5\-|-0-----||


 Interlude
  Q=102
  Amadd4/D
                         ~                          ~
  S S E S S E S S S  E.  E   S S E S S E S S S  E.  E
|--------------------------|--------------------------|
|--------------------------|--------------------------|
|-5-5---5-5---5-5----------|-5-5---5-5---5-5----------|
|-7-7---7-7---7-7----------|-7-7---7-7---7-7----------|
|-5-5---5-5---5-5----------|-5-5---5-5---5-5----------|
|-0-0---0-0---0-0---/5b6-5-|-0-0---0-0---0-0---/5b6-5-|


  Amadd4/D
                         ~                          ~
  S S E S S E S S S  E.  E   S S E S S E S S S  E.  E
|--------------------------|--------------------------||
|--------------------------|--------------------------||
|-5-5---5-5---5-5----------|-5-5---5-5---5-5----------||
|-7-7---7-7---7-7----------|-7-7---7-7---7-7----------||
|-5-5---5-5---5-5----------|-5-5---5-5---5-5----------||
|-0-0---0-0---0-0---/5b6-5-|-0-0---0-0---0-0---/5b6-5-||


   Bridge
    F5D5F5  D5F5  D5F5D5G5     F5D5F5  D5F5  D5F5D5
    PM---------------------------------------------|
    S S S S S S S S S S e q    S S S S S S S S S S e Q
||---------------------------|---------------------------||
||o--------------------------|--------------------------o||
||---------------------------|---------------------------||
||---------------------------|---------------------------||
||o-3-0-3-3-0-3-3-0-3-0-5-5--|-3-0-3-3-0-3-3-0-3-0-0----o||
||--3-0-3-3-0-3-3-0-3-0-5-5--|-3-0-3-3-0-3-3-0-3-0-0-----||


  F5D5F5  D5F5  D5F5D5          F5D5F5  D5F5  D5F5D5
                           ~
  S S S S S S S S S S  E   Q    S S S S S S S S S S E S S  S  S
|-----------------------------|---------------------------------|
|-----------------------------|---------------------------------|
|-----------------------------|---------------------------------|
|-----------------------------|---------------------------<5>---|
|-3-0-3-3-0-3-3-0-3-0---------|-3-0-3-3-0-3-3-0-3-0-0-x-x-----x-|
|-3-0-3-3-0-3-3-0-3-0-/5b6-5--|-3-0-3-3-0-3-3-0-3-0-0-x-x-----x-|


  F5D5F5  D5F5  D5F5D5          F5D5F5  D5F5  D5F5D5
                           ~
  S S S S S S S S S S  E   Q    S S S S S S S S S S E S S S S
|-----------------------------|-------------------------------|
|-----------------------------|-------------------------------|
|-----------------------------|-------------------------------|
|-----------------------------|-------------------------------|
|-3-0-3-3-0-3-3-0-3-0---------|-3-0-3-3-0-3-3-0-3-0-0---x-x-x-|
|-3-0-3-3-0-3-3-0-3-0-/5b6-5--|-3-0-3-3-0-3-3-0-3-0-0---x-x-x-|


  PM----------------------------|
  S S S S S S S S S S S S S S S S
|----------------------------------||
|----------------------------------||
|----------------------------------||
|----------------------------------||
|----------------------------------||
|-0-0-0-0-0-0-0-0-0-0-0-0-0-0-0-0--||


 Chorus
  Q=98
  D5            F5              D5            C5
  H..       E    H..       E    H..       E     H..        E
|-------------|---------------|-------------|-----------------|
|-------------|---------------|-------------|-----------------|
|-------------|---------------|-------------|-----------------|
|-0---------0-|-/3---------3\-|-0---------0-|-/10---------10\-|
|-0---------0-|-/3---------3\-|-0---------0-|-/10---------10\-|
|-0---------0-|-/3---------3\-|-0---------0-|-/10---------10\-|


  D5            F5             G5              D5
  H..       E    H..       E    H..       E    W
|-------------|--------------|---------------|------||
|-------------|--------------|---------------|------||
|-------------|--------------|---------------|------||
|-0---------0-|-/3---------3-|-/5---------5\-|-0----||
|-0---------0-|-/3---------3-|-/5---------5\-|-0----||
|-0---------0-|-/3---------3-|-/5---------5\-|-0----||


                                                            ~~~~~~~~~
  S S S S S S S S S S S S S S S S   S S S S S S S S S S S S Q    +W
|---------------------------------|----------------------------|--------||
|---------------------------------|----------------------------|--------||
|---------------------------------|----------------------------|--------||
|---------------------------------|----------------------------|--------||
|---------------------------------|-------------------------8--|-(8)----||
|-0-0-0-0-0-0-0-0-0-0-0-0-0-0-0-0-|-0-0-0-0-0-0-0-0-0-0-0-0----|--------||


  Q=92
  F5D5 F5D5 F5D5        F5D5 F5D5 F5D5
  S E. S E. S E.  Q     S E. S E. S E.  Q
|---------------------|---------------------|
|---------------------|---------------------|
|---------------------|---------------------|
|---------------------|---------------------|
|-3-0--3-0--3-0-------|-3-0--3-0--3-0-------|
|-3-0--3-0--3-0--<4>--|-3-0--3-0--3-0--<2>--|


  F5D5 F5D5 F5D5        F5D5 F5D5 F5D5
  S E. S E. S E.  Q     S E. S E. S E.   Q
|---------------------|----------------------|
|---------------------|----------------------|
|---------------------|----------------------|
|---------------------|----------------------|
|-3-0--3-0--3-0-------|-3-0--3-0--3-0--------|
|-3-0--3-0--3-0--<4>--|-3-0--3-0--3-0--/12\--|


 Outro
  F5D5F5  D5F5  D5F5D5       F5D5F5  D5F5  D5F5D5
  PM----------------|        PM----------------|
  S S S S S S S S S S E Q    S S S S S S S S S S E Q
|--------------------------|---------------------------|
|--------------------------|---------------------------|
|--------------------------|---------------------------|
|--------------------------|---------------------------|
|-3-0-3-3-0-3-3-0-3-0-0----|-3-0-3-3-0-3-3-0-3-0-0-----|
|-3-0-3-3-0-3-3-0-3-0-0----|-3-0-3-3-0-3-3-0-3-0-0-----|


  F5D5F5  D5F5  D5F5D5       F5D5F5  D5F5  D5F5D5
  PM----------------|        PM----------------|
  S S S S S S S S S S E Q    S S S S S S S S S S E S S S S
|--------------------------|-------------------------------|
|--------------------------|-------------------------------|
|--------------------------|-------------------------------|
|--------------------------|-------------------------------|
|-3-0-3-3-0-3-3-0-3-0-0----|-3-0-3-3-0-3-3-0-3-0-0-x-x-x-x-|
|-3-0-3-3-0-3-3-0-3-0-0----|-3-0-3-3-0-3-3-0-3-0-0-x-x-x-x-|


    F5D5F5  D5F5  D5F5D5            F5D5F5  D5F5  D5F5D5
    S S S S S S S S S S E S S S S   S S S S S S S S S S E S S S S
||--------------------------------|--------------------------------||
||o-------------------------------|-------------------------------o||
||--------------------------------|--------------------------------||
||--------------------------------|--------------------------------||
||o-3-0-3-3-0-3-3-0-3-0-0-x-x-x-x-|-3-0-3-3-0-3-3-0-3-0-0-x-x-x-x-o||
||--3-0-3-3-0-3-3-0-3-0-0-x-x-x-x-|-3-0-3-3-0-3-3-0-3-0-0-x-x-x-x--||


  F5D5F5  D5F5  D5F5D5       F5D5F5  D5F5  D5F5D5
  S S S S S S S S S S E Q    S S S S S S S S S S E Q
|--------------------------|---------------------------*|
|--------------------------|---------------------------*|
|--------------------------|---------------------------*|
|--------------------------|---------------------------*|
|-3-0-3-3-0-3-3-0-3-0-0----|-3-0-3-3-0-3-3-0-3-0-0-----*|
|-3-0-3-3-0-3-3-0-3-0-0----|-3-0-3-3-0-3-3-0-3-0-0-----*|



Duration Legend
---------------
W - whole; H - half; Q - quarter; E - 8th; S - 16th; T - 32nd; X - 64th; a - acciaccatura
+ - note tied to previous; . - note dotted; .. - note double dotted
Uncapitalized letters represent notes that are staccato (1/2 duration)
Irregular groupings are notated above the duration line
Duration letters will always appear directly above the note/fret number it represents the
duration for.  Duration letters with no fret number below them represent rests.  Multi-
bar rests are notated in the form Wxn, where n is the number of bars to rest for.  Low
melody durations appear below the staff

Tablature Legend
----------------
 h   - hammer-on
 p   - pull-off
 b   - bend
 pb  - pre-bend
 r   - bend release (if no number after the r, then release immediately)
 /\  - slide into or out of (from/to "nowhere")
 s   - legato slide
 S   - shift slide
 - natural harmonic
[n]  - artificial harmonic
n(n) - tapped harmonic
 ~   - vibrato
 tr  - trill
 T   - tap
 TP  - trem. picking
 PM  - palm muting
\n/  - tremolo bar dip; n = amount to dip
 \n  - tremolo bar down
 n/  - tremolo bar up
/n\  - tremolo bar inverted dip
 =   - hold bend; also acts as connecting device for hammers/pulls
 <> - volume swell (louder/softer)
 x   - on rhythm slash represents muted slash
 o   - on rhythm slash represents single note slash

Misc Legend
-----------
 |  - bar
||  - double bar
||o - repeat start
o|| - repeat end
*|  - double bar (ending)
 :  - bar (freetime)
 $  - Segno
 &  - Coda
Tempo markers -  = BPM(8/16=s8/s16), where s8 = swing 8ths, s16 = swing 16ths

Tap to rate this tab
# A B C D E F G H I J K L M N O P Q R S T U V W X Y Z