Song name
# A B C D E F G H I J K L M N O P Q R S T U V W X Y Z

Anthrax - Indians tab

#----------------------------------PLEASE NOTE---------------------------------#
#This file is the author's own work and represents their interpretation of the #
#song. You may only use this file for private study, scholarship, or research. #
#------------------------------------------------------------------------------#

INDIANS
As recorded by Anthrax
(From the 1987 Album AMONG THE LIVING)

Transcribed by B. Johnson
	

Words and Music by Anthrax
Arranged by Anthrax

EI(type 2)
0 2 2 0 0 0
	
F#I(type 2)
0 4 4 0 0 0
	
GI(type 2)
0 5 5 0 0 0
	
BI(type 2)
0 9 9 0 0 0

CI(type 2)
0 10 10 0 0 0
	
DI(type 2)
0 0 7 7 0 0
	
D#I(type 2)
0 0 8 8 0 0
	
G#I(type 2)
0 6 6 0 0 0

AI(type 2)
0 7 7 0 0 0

Gtr I (E A D G B E) - 'Untitled'
Gtr II (E A D G B E) - 'Untitled'
Gtr III (E A D G B E) - 'Untitled'
Gtr IV (E A D G B E) - 'overdub'

 Intro ( War Dance ) Drums
  Theme 1 Melodic Metal Q=110
 4/4
  Gtr III
  Q     S S E   Q     S S E     Q     S S E   Q     S S E
|-----------------------------|-----------------------------||
|-5-------------5-------------|-5-------------5-------------||
|-4-----2-4-----4-----2-4-----|-4-----2-4-----4-----2-4-----||
|---4-4-----4-4---4-4-----4-4-|---4-4-----4-4---4-4-----4-4-||
|-----------------------------|-----------------------------||
|-----------------------------|-----------------------------||
  E S S E   S S E S S E   S S   E S S E   S S E S S E   S S


  N.C.
   Q     S S E    Q        S  S E      Q     S S E    Q        S  S E
|-----------------------------------|-----------------------------------|
|--5--------------5-----------------|--5--------------5-----------------|
|--4-----2-4------4--------2--4-----|--4-----2-4------4--------2--4-----|
|----4-4-----4-4------4-4-------4-4-|----4-4-----4-4------4-4-------4-4-|
|-----------------------------------|-----------------------------------|
|-----------------------------------|-----------------------------------|
|  E S S E   S S  E   S S  E    S S    E S S E   S S  E   S S  E    S S
|
| Gtr I
|                          ~~~                                 ~~~
|  Q     Q        S S E   +Q           Q     Q        S S E   +Q
|-----------------------------------|-----------------------------------|
|-------------------6p5---(5)-------|-------------------6p5---(5)-------|
|-/5-----4-------/5-----------------|-/5-----4-------/5-----------------|
|-----------------------------------|-----------------------------------|
|-----------------------------------|-----------------------------------|
|-----------------------------------|-----------------------------------|
|
| Gtr II
|                          ~~~                                 ~~~
|  Q     Q        S S E   +Q           Q     Q        S S E   +Q
|-----------------------------------|-----------------------------------|
|-----------------------------------|-----------------------------------|
|-------------------5p4---(4)-------|-------------------5p4---(4)-------|
|-/7-----5-------/7-----------------|-/7-----5-------/7-----------------|
|-----------------------------------|-----------------------------------|
|-----------------------------------|-----------------------------------|


   Q     S S E    Q        S  S E      Q     S S E    Q        S  S E
|-----------------------------------|-----------------------------------||
|--5--------------5-----------------|--5--------------5-----------------||
|--4-----2-4------4--------2--4-----|--4-----2-4------4--------2--4-----||
|----4-4-----4-4------4-4-------4-4-|----4-4-----4-4------4-4-------4-4-||
|-----------------------------------|-----------------------------------||
|-----------------------------------|-----------------------------------||
|  E S S E   S S  E   S S  E    S S    E S S E   S S  E   S S  E    S S
|
|                          ~~~                                 ~~~
|  Q     Q        S S E   +Q           Q     Q        S S E   +Q
|-----------------------------------|-----------------------------------||
|-------------------8p7---(7)-------|-------------------8p7---(7)-------||
|-/7-----6-------/7-----------------|-/7-----6-------/7-----------------||
|-----------------------------------|-----------------------------------||
|-----------------------------------|-----------------------------------||
|-----------------------------------|-----------------------------------||
|
|                          ~~~                                 ~~~
|  Q     Q        S S E   +Q           Q     Q        S S E   +Q
|-----------------------------------|-----------------------------------||
|-----------------------------------|-----------------------------------||
|-------------------7p6---(6)-------|-------------------7p6---(6)-------||
|-/9-----7-------/9-----------------|-/9-----7-------/9-----------------||
|-----------------------------------|-----------------------------------||
|-----------------------------------|-----------------------------------||


 Intro ( Band Enters )
  A
  Gtr I
   Q  Q  S S E +Q      Q  Q  S S E +Q
|-------------------|-------------------|
|-------------------|-------------------|
|-/5--4--5p4--------|-/5--4--5p4--------|
|------------5-(5)--|------------5-(5)--|
|-------------------|-------------------|
|-------------------|-------------------|
|
| Gtr II
|  Q  Q  S S E +Q      Q  Q  S S E +Q
|-------------------|-------------------|
|-------------------|-------------------|
|-------------------|-------------------|
|-/7--5--7p5--------|-/7--5--7p5--------|
|------------7-(7)--|------------7-(7)--|
|-------------------|-------------------|


   Q  Q  S S E +Q      Q  Q  S S E +Q
|-------------------|-------------------|
|-------------------|-------------------|
|-/5--4--5p4--------|-/5--4--5p4--------|
|------------5-(5)--|------------5-(5)--|
|-------------------|-------------------|
|-------------------|-------------------|
|
|  Q  Q  S S E +Q      Q  Q  S S E +Q
|-------------------|-------------------|
|-------------------|-------------------|
|-------------------|-------------------|
|-/7--5--7p5--------|-/7--5--7p5--------|
|------------7-(7)--|------------7-(7)--|
|-------------------|-------------------|


  B
   Q  Q  S S E +Q      Q  Q  S S E +Q
|-------------------|-------------------|
|-------------------|-------------------|
|-/7--6--7p6--------|-/7--6--7p6--------|
|------------7-(7)--|------------7-(7)--|
|-------------------|-------------------|
|-------------------|-------------------|
|
|  Q  Q  S S E +Q      Q  Q  S S E +Q
|-------------------|-------------------|
|-------------------|-------------------|
|-------------------|-------------------|
|-/9--7--9p7--------|-/9--7--9p7--------|
|------------9-(9)--|------------9-(9)--|
|-------------------|-------------------|


  A
   Q  Q  S S E +Q      Q  Q  S S E +Q
|-------------------|-------------------||
|-------------------|-------------------||
|-/5--4--5p4--------|-/5--4--5p4--------||
|------------5-(5)--|------------5-(5)--||
|-------------------|-------------------||
|-------------------|-------------------||
|
|  Q  Q  S S E +Q      Q  Q  S S E +Q
|-------------------|-------------------||
|-------------------|-------------------||
|-------------------|-------------------||
|-/7--5--7p5--------|-/7--5--7p5--------||
|------------7-(7)--|------------7-(7)--||
|-------------------|-------------------||


 Pre-Verse
  Fast Thrash Metal Q=210
     AI(G#IF5ype 2)E5                   AI(G#IF5ype
     Gtrs I, II
                      PM--------------|
  Q  Q  Q   Q      Q  E E E E E E   E E Q  Q   Q
|--------------||-----------------|---------------|
|--------------||o----------------|---------------|
|--------------||-----------------|---------------|
|----7--6--10--||--9--------------|-----7--6--10--|
|----7--6---8--||o-7--x-x-x-x-x-x-|-x-x-7--6---8--|
|--------------||-----0-0-0-0-0-0-|-0-0-----------|


  E5                   AI(G#IF5ype 2)
     PM--------------|
  Q  E E E E E E   E E Q  Q   Q
|----------------|----------------||
|----------------|---------------o||
|----------------|----------------||
|-9--------------|-----7--6--10---||
|-7--7-7-7-7-7-7-|-7-7-7--6---8--o||
|----0-0-0-0-0-0-|-0-0------------||


  E5
                              PM------------------------------|
  q  q  q  q    q  q  q  q    E E E E E E E E   E E E E E E E E
|-------------|-------------|-----------------|-----------------|
|-------------|-------------|-----------------|-----------------|
|-------------|-------------|-----------------|-----------------|
|-9--9--9--9--|-9--9--9--9--|-----------------|-----------------|
|-7--7--7--7--|-7--7--7--7--|-----------------|-----------------|
|-------------|-------------|-0-2-0-2-0-2-0-2-|-0-2-0-3-0-4-0-5-|


  GI(type 2)            F#IGI(F#I(tGI(type 2)            F#IEI(F#I(type 2)
    PM|   PM|   PM----|              PM|   PM|   PM----|
  E E E E E E E E   E E Q  Q  Q    E E E E E E E E   E E Q  Q  Q
|-----------------|--------------|-----------------|--------------|
|-----------------|--------------|-----------------|--------------|
|-----------------|--------------|-----------------|--------------|
|-5-----5-----5---|-----4--5--4--|-5-----5-----5---|-----4--2--4--|
|-5-----5-----5---|-----4--5--4--|-5-----5-----5---|-----4--2--4--|
|---0-0---0-0---0-|-0-0----------|---0-0---0-0---0-|-0-0----------|


    GI(type 2)            F#IGI(F#I(tGI(type 2)
      PM|   PM|   PM----|              PM|   PM|   PM-
    E E E E E E E E   E E Q  Q  Q    E E E E E E E E
||------------------|--------------|-----------------|
||o-----------------|--------------|-----------------|
||------------------|--------------|-----------------|
||--5-----5-----5---|-----4--5--4--|-5-----5-----5---|
||o-5-----5-----5---|-----4--5--4--|-5-----5-----5---|
||----0-0---0-0---0-|-0-0----------|---0-0---0-0---0-|


      F#IEI(F#I(type 2)
 ---|              PM------------|
  E E Q  Q  Q      E E E E E E E E
|---------------||-------------------||
|--------------o||-------------------||
|---------------||-------------------||
|-----4--2--4---||-------------------||
|-----4--2--4--o||-------------------||
|-0-0-----------||-0-2-0-2-0-2-0-2---||


   1st, 2nd, 3rd, 4th Verses
    $
    $$
    GI(type 2)            F#IGI(F#I(tGI(type 2)            F#IEI(F#I(type 2)
      PM|   PM|   PM----|              PM|   PM|   PM----|
    E E E E E E E E   E E Q  Q  Q    E E E E E E E E   E E Q  Q  Q
||------------------|--------------|-----------------|---------------|
||o-----------------|--------------|-----------------|---------------|
||------------------|--------------|-----------------|---------------|
||--5-----5-----5---|-----4--5--4--|-5-----5-----5---|-----4--2--4---|
||o-5-----5-----5---|-----4--5--4--|-5-----5-----5---|-----4--2--4---|
||----0-0---0-0---0-|-0-0----------|---0-0---0-0---0-|-0-0-----------|


  GI(type 2)            F#IGI(F#I(tGI(type 2)            F#IEI(F#I(type 2)
    PM|   PM|   PM----|              PM|   PM|   PM----|
  E E E E E E E E   E E Q  Q  Q    E E E E E E E E   E E Q  Q  Q
|-----------------|--------------|-----------------|--------------|
|-----------------|--------------|-----------------|--------------|
|-----------------|--------------|-----------------|--------------|
|-5-----5-----5---|-----4--5--4--|-5-----5-----5---|-----4--2--4--|
|-5-----5-----5---|-----4--5--4--|-5-----5-----5---|-----4--2--4--|
|---0-0---0-0---0-|-0-0----------|---0-0---0-0---0-|-0-0----------|


  GI(type 2)            F#IGI(F#I(tGI(type 2)            F#IEI(F#I(type 2)
    PM|   PM|   PM----|              PM|   PM|   PM----|
  E E E E E E E E   E E Q  Q  Q    E E E E E E E E   E E Q  Q  Q
|-----------------|--------------|-----------------|--------------|
|-----------------|--------------|-----------------|--------------|
|-----------------|--------------|-----------------|--------------|
|-5-----5-----5---|-----4--5--4--|-5-----5-----5---|-----4--2--4--|
|-5-----5-----5---|-----4--5--4--|-5-----5-----5---|-----4--2--4--|
|---0-0---0-0---0-|-0-0----------|---0-0---0-0---0-|-0-0----------|


  F#I(type 2)           F#IGI(F#I(tGI(type 2)            AI(G#IF5ype 2)
    PM|   PM|   PM----|              PM|   PM|   PM----|
  E E E E E E E E   E E Q  Q  Q    E E E E E E E E   E E Q  Q   Q
|-----------------|--------------|-----------------|---------------||
|-----------------|--------------|-----------------|---------------||
|-----------------|--------------|-----------------|---------------||
|-5-----5-----5---|-----4--5--4--|-5-----5-----5---|-----7--6--10--||
|-5-----5-----5---|-----4--5--4--|-5-----5-----5---|-----7--6---8--||
|---0-0---0-0---0-|-0-0----------|---0-0---0-0---0-|-0-0-----------||


                        AI(G#IF5ype 2)                    AI(G#IF5ype 2)
  PM------------------|             PM------------------|
  E E E E E E E E   E E Q  Q   Q    E E E E E E E E   E E Q  Q   Q
|-----------------|---------------|-----------------|---------------|
|-----------------|---------------|-----------------|---------------|
|-----------------|---------------|-----------------|---------------|
|-----------------|-----7--6--10--|-----------------|-----7--6--10--|
|-----------------|-----7--6---8--|-----------------|-----7--6---8--|
|-0-0-0-0-0-0-0-0-|-0-0-----------|-0-0-0-0-0-0-0-0-|-0-0-----------|


                        AI(G#IF5ype 2)                    AI(G#IF5ype 2)
  PM------------------|             PM------------------|
  E E E E E E E E   E E Q  Q   Q    E E E E E E E E   E E Q  Q   Q
|-----------------|---------------|-----------------|---------------||
|-----------------|---------------|-----------------|---------------||
|-----------------|---------------|-----------------|---------------||
|-----------------|-----7--6--10--|-----------------|-----7--6--10--||
|-----------------|-----7--6---8--|-----------------|-----7--6---8--||
|-0-0-0-0-0-0-0-0-|-0-0-----------|-0-0-0-0-0-0-0-0-|-0-0-----------||


      E5            E5 B5 Bb5F5        E5            E5 B5 G5  F#5
  PM|   PM|   PM|                  PM|   PM|   PM|
  E E E E E E E E   Q  Q  Q   Q    E E E E E E E E   Q  Q   Q   Q
|-----------------|--------------|-----------------|---------------|
|-----------------|--------------|-----------------|---------------|
|-----------------|--------------|-----------------|---------------|
|-----9-----9-----|-9--------10--|-----9-----9-----|-9-----12--11--|
|-----7-----7-----|-7--9--8---8--|-----7-----7-----|-7--9--10---9--|
|-0-0---0-0---0-0-|----7--6------|-0-0---0-0---0-0-|----7----------|


      E5            E5 B5 Bb5F5        E5
  PM|   PM|   PM|                  PM|   PM|   PM|
  E E E E E E E E   Q  Q  Q   Q    E E E E E E E E
|-----------------|--------------|-----------------|
|-----------------|--------------|-----------------|
|-----------------|--------------|-----------------|
|-----9-----9-----|-9--------10--|-----9-----9-----|
|-----7-----7-----|-7--9--8---8--|-----7-----7-----|
|-0-0---0-0---0-0-|----7--6------|-0-0---0-0---0-0-|


         To Coda
         To Coda
  E5 B5 G5  F#5
                  PM------------|
  Q  Q   Q   Q    E E E E E E E E
|---------------|------------------||
|---------------|-----------------o||
|---------------|------------------||
|-9-----12--11--|------------------||
|-7--9--10---9--|-----------------o||
|----7----------|-0-2-0-2-0-2-0-2--||


 Chorus 1
  E5              B5        Bb5                   A5  G5  F#5
                            PM------------------------------|
  W          +Q   Q  H      E E E E E E E E   E E E E E E E E
|----------|--------------|-----------------|-----------------|
|----------|--------------|-----------------|-----------------|
|----------|--------------|-----------------|-----------------|
|-9--------|-(9)----------|-----------------|-----------------|
|-7--------|-(7)--9--9----|-8-8-8-8-8-8-8-8-|-8-8-7-7-5-5-4-4-|
|----------|------7--7----|-6-6-6-6-6-6-6-6-|-6-6-5-5-3-3-2-2-|


  E5              B5        Bb5
                            PM------------|
  W          +Q   Q  H      E E E E E E E E   Q  Q  H
|----------|--------------|-----------------|------------|
|----------|--------------|-----------------|------------|
|----------|--------------|-----------------|------------|
|-9--------|-(9)----------|-----------------|------------|
|-7--------|-(7)--9--9----|-8-8-8-8-8-8-8-8-|-8----------|
|----------|------7--7----|-6-6-6-6-6-6-6-6-|-6----------|


  E5              B5        Bb5                       G5  F#5
                            PM------------------------------|
  W          +Q   Q  H      E E E E E E E E   E E E E E E E E
|----------|--------------|-----------------|-----------------|
|----------|--------------|-----------------|-----------------|
|----------|--------------|-----------------|-----------------|
|-9--------|-(9)----------|-----------------|-----------------|
|-7--------|-(7)--9--9----|-8-8-8-8-8-8-8-8-|-8-8-8-8-5-5-4-4-|
|----------|------7--7----|-6-6-6-6-6-6-6-6-|-6-6-6-6-3-3-2-2-|


                                                D.S. al Coda
  E5              B5        Bb5                   A5  G5  F#5
                            PM------------------------------|
  W          +Q   Q  H      E E E E E E E E   E E E E E E E E
|----------|--------------|-----------------|-----------------||
|----------|--------------|-----------------|-----------------||
|----------|--------------|-----------------|-----------------||
|-9--------|-(9)----------|-----------------|-----------------||
|-7--------|-(7)--9--9----|-8-8-8-8-8-8-8-8-|-8-8-7-7-5-5-4-4-||
|----------|------7--7----|-6-6-6-6-6-6-6-6-|-6-6-5-5-3-3-2-2-||


                    Chorus 2
  &
                     E5              B5
  PM------------|
  E E E E E E E E    W          +Q   Q  H
|-----------------||----------|--------------|
|-----------------||----------|--------------|
|-----------------||----------|--------------|
|-----------------||-9--------|-(9)----------|
|-----------------||-7--------|-(7)--9--9----|
|-0-2-0-2-0-2-0-2-||----------|------7--7----|


  Bb5                   A5  G5  F#5
  PM------------------------------|
  E E E E E E E E   E E E E E E E E
|-----------------|-----------------|
|-----------------|-----------------|
|-----------------|-----------------|
|-----------------|-----------------|
|-8-8-8-8-8-8-8-8-|-8-8-7-7-5-5-4-4-|
|-6-6-6-6-6-6-6-6-|-6-6-5-5-3-3-2-2-|


  E5              B5        Bb5
                            PM------------|
  W          +Q   Q  H      E E E E E E E E   Q  Q  H
|----------|--------------|-----------------|------------|
|----------|--------------|-----------------|------------|
|----------|--------------|-----------------|------------|
|-9--------|-(9)----------|-----------------|------------|
|-7--------|-(7)--9--9----|-8-8-8-8-8-8-8-8-|-8----------|
|----------|------7--7----|-6-6-6-6-6-6-6-6-|-6----------|


  E5              B5        Bb5                       G5  F#5
                            PM------------------------------|
  W          +Q   Q  H      E E E E E E E E   E E E E E E E E
|----------|--------------|-----------------|-----------------|
|----------|--------------|-----------------|-----------------|
|----------|--------------|-----------------|-----------------|
|-9--------|-(9)----------|-----------------|-----------------|
|-7--------|-(7)--9--9----|-8-8-8-8-8-8-8-8-|-8-8-8-8-5-5-4-4-|
|----------|------7--7----|-6-6-6-6-6-6-6-6-|-6-6-6-6-3-3-2-2-|


  E5              B5        Bb5
                            PM------------|
  W          +Q   Q  H      E E E E E E E E   Q  Q  H
|----------|--------------|-----------------|------------||
|----------|--------------|-----------------|------------||
|----------|--------------|-----------------|------------||
|-9--------|-(9)----------|-----------------|------------||
|-7--------|-(7)--9--9----|-8-8-8-8-8-8-8-8-|-8----------||
|----------|------7--7----|-6-6-6-6-6-6-6-6-|-6----------||


 Bridge
  Half-Time Feel Melodic Q=161
  G5 E5                                 G5 E5
       PM|   PM|     PM--|                   PM|   PM|     PM--|
   E E E E E E E E   E E E  E E E E E    E E E E E E E E   E E E  E E E E E
|------------------|------------------|------------------|------------------|
|------------------|------------------|------------------|------------------|
|------------------|------------8-7---|------------------|------------8-7---|
|-12s9-----9-----9-|-------10s9-8-7-9-|-12s9-----9-----9-|-------10s9-8-7-9-|
|-10s7-----7-----7-|-------10s9-----9-|-10s7-----7-----7-|-------10s9-----9-|
|------0-0---0-0---|-0-0-0------------|------0-0---0-0---|-0-0-0------------|


  G5 E5                                 G5 E5
       PM|   PM|     PM--|                   PM|   PM|     PM--|
   E E E E E E E E   E E E  E E E E E    E E E E E E E E   E E E  E E E E E
|------------------|------------------|------------------|------------------|
|------------------|------------------|------------------|------------------|
|------------------|------------8-7---|------------------|------------8-7---|
|-12s9-----9-----9-|-------10s9-8-7-9-|-12s9-----9-----9-|-------10s9-8-7-9-|
|-10s7-----7-----7-|-------10s9-----9-|-10s7-----7-----7-|-------10s9-----9-|
|------0-0---0-0---|-0-0-0------------|------0-0---0-0---|-0-0-0------------|


  G5 E5                                 G5 E5
       PM|   PM|     PM--|                   PM|   PM|     PM--|
   E E E E E E E E   E E E  E E E E E    E E E E E E E E   E E E E E E E E
|------------------|------------------|------------------|-----------------|
|------------------|------------------|------------------|-----------------|
|------------------|------------8-7---|------------------|-----------------|
|-12s9-----9-----9-|-------10s9-8-7-9-|-12s9-----9-----9-|-----------------|
|-10s7-----7-----7-|-------10s9-----9-|-10s7-----7-----7-|-----------6-5---|
|------0-0---0-0---|-0-0-0------------|------0-0---0-0---|-0-0-0-8-7-----7-|


  G5 E5                                G5 E5
       PM|   PM|     PM--|                  PM|   PM|     PM--|
   E E E E E E E E   E E E E E E E E    E E E E E E E E   E E E E E E E E
|------------------|-----------------|------------------|-----------------|
|------------------|-----------------|------------------|-----------------|
|------------------|-----------------|------------------|-----------------|
|-12s9-----9-----9-|-----------------|-12s9-----9-----9-|-----------------|
|-10s7-----7-----7-|-----------6-5---|-10s7-----7-----7-|-----------6-5---|
|------0-0---0-0---|-0-0-0-8-7-----7-|------0-0---0-0---|-0-0-0-8-7-----7-|


  G5 E5                                G5 E5
       PM|   PM|     PM--|                  PM|   PM|     PM--|
   E E E E E E E E   E E E E E E E E    E E E E E E E E   E E E E E E E E
|------------------|-----------------|------------------|-----------------||
|------------------|-----------------|------------------|-----------------||
|------------------|-----------------|------------------|-----------------||
|-12s9-----9-----9-|-----------------|-12s9-----9-----9-|-----------------||
|-10s7-----7-----7-|-----------6-5---|-10s7-----7-----7-|-----------6-5---||
|------0-0---0-0---|-0-0-0-8-7-----7-|------0-0---0-0---|-0-0-0-8-7-----7-||


 Guitar Solo
  G5
  Gtr I
     PM----|    PM      PM-|
   E E E E E  E E  E    E  E  E E E E E E
|--------------------|--------------------|
|--------------------|--------------------|
|--------------------|--------------------|
|-12---------12---12-|--------------------|
|-10---------10---10-|-------10-9-8-7-8-9-|
|----0-0-0-0----0----|--0--0--------------|
|
| Gtr II
|  PM              ~~~~~~~~     PM
|  E E E E E  E E  E   +Q     E E E E E E
|--------------------|--------------------|
|--------------------|--------------------|
|--------------------|--------------------|
|--5-----------------|------------5h6p5---|
|----3---5----6----5-|-(5)----6-5---------|
|--------------------|--------------------|


  G5
     PM----|    PM      PM-|
   E E E E E  E E  E    E  E  E E E E E E
|--------------------|--------------------|
|--------------------|--------------------|
|--------------------|--------------------|
|-12---------12---12-|--------------------|
|-10---------10---10-|-------10-9-8-7-8-9-|
|----0-0-0-0----0----|--0--0--------------|
|
|                  ~~~~~~~~
|  E E E E E  E E  E   +Q     E E E E E E
|--------------------|--------------------|
|--8-----------------|------------8h9p8---|
|----5---7----8----7-|-(7)----8-7---------|
|--------------------|--------------------|
|--------------------|--------------------|
|--------------------|--------------------|


  G5
     PM----|    PM      PM-|
   E E E E E  E E  E    E  E  E E E E E E
|--------------------|--------------------|
|--------------------|--------------------|
|--------------------|--------------------|
|-12---------12---12-|--------------------|
|-10---------10---10-|-------10-9-8-7-8-9-|
|----0-0-0-0----0----|--0--0--------------|
|
|                  ~~~~~~~~
|  E E E E E  E E  E   +Q     E E E E E E
|--8-----------------|------------7h8p7---|
|----6---8----9----8-|-(8)----9-6---------|
|--------------------|--------------------|
|--------------------|--------------------|
|--------------------|--------------------|
|--------------------|--------------------|


  G5
      PM------|       PM           PM-----|
   E  E  E  E   E   E E  E         E      E  E E E E E E
|------------------------------|-------------------------|
|------------------------------|-------------------------|
|------------------------------|-------------------------|
|-12---------------12---12-----|-------------------------|
|-10---------------10---10-----|------------10-9-8-7-8-9-|
|-----0--0--0---0-----0--------|---0------0--------------|
|
|  E  E  E  E  +E   Q    E        +W
|-16-15-13-15-(15)-16---15tr16-|-(15tr16)----------------|
|------------------------------|-------------------------|
|------------------------------|-------------------------|
|------------------------------|-------------------------|
|------------------------------|-------------------------|
|------------------------------|-------------------------|


  G5
     PM----|    PM     PM|
   E E E E E  E E  E   E E  E E E     E  E  E
|--------------------|-------------------------|
|--------------------|-------------------------|
|--------------------|-------------------------|
|-12---------12---12-|-------------------------|
|-10---------10---10-|-----10-9-8-----7--8--9--|
|----0-0-0-0----0----|-0-0---------------------|
|
|  PM|   PM|    PM|
|  E E E E E  E E  E   E E  E E E    +Q    +E
|--------------------|-------------------------|
|--------------------|-6----8-6-6b8==(6)r==(6)-|
|--------------------|---5---------------------|
|------5------8-5----|-------------------------|
|--------0-5-------8-|-------------------------|
|--0-3---------------|-------------------------|


  G5
     PM----|           PM                 PM---|
   E E E E E     E     E          E       E     E  E       E    E  E E E
|--------------------------------------|----------------------------------|
|--------------------------------------|----------------------------------|
|--------------------------------------|----------------------------------|
|-12------------12---------------12----|----------------------------------|
|-10------------10---------------10----|----------10-------9----8--7-8-9--|
|----0-0-0-0-----------0---------------|--0-----0-------------------------|
|
|  E E E E S  S  S  S  S     +S   S  S    S  S  E  E      +E   +H
|----------8---------------------12-12-|-18p10-10-13b15==(13)r(13)--------|
|----6---8---10-10-10-13b15r(13)-------|----------------------------------|
|--7---9-------------------------------|----------------------------------|
|--------------------------------------|----------------------------------|
|--------------------------------------|----------------------------------|
|--------------------------------------|----------------------------------|


  G5
           PM---------|        PM      PM---|
   E       E      E E   E    E E  E    E     E     E     E     E E E E
|-----------------------------------|----------------------------------|
|-----------------------------------|----------------------------------|
|-----------------------------------|----------------------------------|
|-12------------------------12---12-|----------------------------------|
|-10------------------------10---10-|-------------10-----9-----8-7-8-9-|
|----------0------0-0---0------0----|--0-----0-------------------------|
|
|                       ~~~~~
|  E      +Q.          +H              S  S  S  S  S  S  S  S  H
|-20pb22r(20)b22======(20)r---------|-18h20-18p17-18p17----------------|
|-----------------------------------|-------------------20p18h20-------|
|-----------------------------------|----------------------------------|
|-----------------------------------|----------------------------------|
|-----------------------------------|----------------------------------|
|-----------------------------------|----------------------------------|


  G5
         PM---------------|            PM
   E     E     E     E     E     E     E     E
|-------------------------------------------------|
|-------------------------------------------------|
|-------------------------------------------------|
|-12----------------------------12----------12----|
|-10----------------------------10----------10----|
|--------0-----0-----0-----0-----------0----------|
|
|  S  S  S  S  S  S  S  S  S  S  S  S  S  S  S  S
|-------------------------------------------------|
|-18h20-18p17-18p17-------------------------------|
|-------------------19p17-17h19-17p15-17p15-------|
|-------------------------------------------17p15-|
|-------------------------------------------------|
|-------------------------------------------------|


   PM---|
   E     E     E     E     E E E E
|----------------------------------|
|----------------------------------|
|----------------------------------|
|----------------------------------|
|-------------10-----9-----8-7-8-9-|
|--0-----0-------------------------|
|
|  S  S  S  S  S  S  S  S  H
|----------------------------------|
|----------------------------------|
|----------------------------------|
|-15h17p15----15-------------------|
|----------17----17p15p13----------|
|-------------------------15-------|


  E
   H         H       E      E  Q  H
|-----------------|-------------------------|
|-----------------|-------------------------|
|-----------------|-------------------------|
|-----------------|-------------------------|
|--7---------5----|--7------5---------------|
|-----------------|------------7--7---------|
|
| Gtrs II, IV
|  H         H       E     +E  H       E  E
|-----------------|----------------------12-|
|-10pb12----10----|-10b12r(10)-7-----/15----|
|-----------------|-------------------------|
|-----------------|-------------------------|
|-----------------|-------------------------|
|-----------------|-------------------------|


  E
   H         H       E      E   Q  H
|-----------------|--------------------------|
|-----------------|--------------------------|
|-----------------|--------------------------|
|-----------------|--------------------------|
|--7---------5----|--7------5----------------|
|-----------------|-------------7--7---------|
|
|  H         H       E     +E   H       E  E
|-----------------|-----------------------19-|
|-15pb17----15----|-15b17r(15)-12-----/22----|
|-----------------|--------------------------|
|-----------------|--------------------------|
|-----------------|--------------------------|
|-----------------|--------------------------|


                                                        D.S.S. al Dbl. Coda
  E                                           E
   H         H       E      E   Q   H         H       H      E    E  Q   H
|-----------------|-------------------------|--------------|------------------||
|-----------------|-------------------------|--------------|------------------||
|-----------------|-------------------------|--------------|------------------||
|-----------------|-------------------------|--------------|------------------||
|--7---------5----|--7------5---------------|-7-------5----|-7----5-----------||
|-----------------|-------------7---7-------|--------------|---------7---7----||
|
|  H         H       E     +E   H       E E   H       H      E   +E  H.
|-----------------|-------------------------|--------------|------------------||
|-22pb24----22----|-22b24r(22)-19\--------5-|--------------|------------------||
|-----------------|--------------------/7---|-7pb9----7----|-7b9r(7)-4--------||
|-----------------|-------------------------|--------------|------------------||
|-----------------|-------------------------|--------------|------------------||
|-----------------|-------------------------|--------------|------------------||


                    Chorus 3
  Fast Thrash Metal Q=210
  &&
                     E5              B5
  Gtrs I, II
  PM------------|
  E E E E E E E E    W          +Q   Q  H
|-----------------||----------|--------------|
|-----------------||----------|--------------|
|-----------------||----------|--------------|
|-----------------||-9--------|-(9)----------|
|-----------------||-7--------|-(7)--9--9----|
|-0-2-0-2-0-2-0-2-||----------|------7--7----|


  Bb5                   A5  G5  F#5
  PM------------------------------|
  E E E E E E E E   E E E E E E E E
|-----------------|-----------------|
|-----------------|-----------------|
|-----------------|-----------------|
|-----------------|-----------------|
|-8-8-8-8-8-8-8-8-|-8-8-7-7-5-5-4-4-|
|-6-6-6-6-6-6-6-6-|-6-6-5-5-3-3-2-2-|


  E5              B5        Bb5
                            PM------------|
  W          +Q   Q  H      E E E E E E E E   Q  Q  H
|----------|--------------|-----------------|------------|
|----------|--------------|-----------------|------------|
|----------|--------------|-----------------|------------|
|-9--------|-(9)----------|-----------------|------------|
|-7--------|-(7)--9--9----|-8-8-8-8-8-8-8-8-|-8----------|
|----------|------7--7----|-6-6-6-6-6-6-6-6-|-6----------|


  E5              B5        Bb5                       G5  F#5
                            PM------------------------------|
  W          +Q   Q  H      E E E E E E E E   E E E E E E E E
|----------|--------------|-----------------|-----------------|
|----------|--------------|-----------------|-----------------|
|----------|--------------|-----------------|-----------------|
|-9--------|-(9)----------|-----------------|-----------------|
|-7--------|-(7)--9--9----|-8-8-8-8-8-8-8-8-|-8-8-8-8-5-5-4-4-|
|----------|------7--7----|-6-6-6-6-6-6-6-6-|-6-6-6-6-3-3-2-2-|


  E5              B5        Bb5                   A5  G5  F#5
                            PM------------------------------|
  W          +Q   Q  H      E E E E E E E E   E E E E E E E E
|----------|--------------|-----------------|-----------------||
|----------|--------------|-----------------|-----------------||
|----------|--------------|-----------------|-----------------||
|-9--------|-(9)----------|-----------------|-----------------||
|-7--------|-(7)--9--9----|-8-8-8-8-8-8-8-8-|-8-8-7-7-5-5-4-4-||
|----------|------7--7----|-6-6-6-6-6-6-6-6-|-6-6-5-5-3-3-2-2-||


 Outro
  Theme 1 Melodic Metal Q=110
  E5 D5 E5D5B5     E5 D5 E5D5B5     E5 D5 E5D5B5     E5 D5 E5D5B5
  Q  Q  S S E Q    Q  Q  S S E Q    Q  Q  S S E Q    Q  Q  S S E Q
|----------------|----------------|----------------|-----------------*|
|----------------|----------------|----------------|-----------------*|
|----------------|----------------|----------------|-----------------*|
|-9--7--9s7------|-9--7--9s7------|-9--7--9s7------|-9--7--9s7-------*|
|-7--5--7s5-9-9--|-7--5--7s5-9-9--|-7--5--7s5-9-9--|-7--5--7s5-9-9\--*|
|-----------7-7--|-----------7-7--|-----------7-7--|-----------7-7\--*|



Duration Legend
---------------
W - whole; H - half; Q - quarter; E - 8th; S - 16th; T - 32nd; X - 64th; a - acciaccatura
+ - note tied to previous; . - note dotted; .. - note double dotted
Uncapitalized letters represent notes that are staccato (1/2 duration)
Irregular groupings are notated above the duration line
Duration letters will always appear directly above the note/fret number it represents the
duration for.  Duration letters with no fret number below them represent rests.  Multi-
bar rests are notated in the form Wxn, where n is the number of bars to rest for.  Low
melody durations appear below the staff

Tablature Legend
----------------
 h   - hammer-on
 p   - pull-off
 b   - bend
 pb  - pre-bend
 r   - bend release (if no number after the r, then release immediately)
 /\  - slide into or out of (from/to "nowhere")
 s   - legato slide
 S   - shift slide
 - natural harmonic
[n]  - artificial harmonic
n(n) - tapped harmonic
 ~   - vibrato
 tr  - trill
 T   - tap
 TP  - trem. picking
 PM  - palm muting
\n/  - tremolo bar dip; n = amount to dip
 \n  - tremolo bar down
 n/  - tremolo bar up
/n\  - tremolo bar inverted dip
 =   - hold bend; also acts as connecting device for hammers/pulls
 <> - volume swell (louder/softer)
 x   - on rhythm slash represents muted slash
 o   - on rhythm slash represents single note slash

Misc Legend
-----------
 |  - bar
||  - double bar
||o - repeat start
o|| - repeat end
*|  - double bar (ending)
 :  - bar (freetime)
 $  - Segno
 &  - Coda
Tempo markers -  = BPM(8/16=s8/s16), where s8 = swing 8ths, s16 = swing 16ths

Tap to rate this tab
# A B C D E F G H I J K L M N O P Q R S T U V W X Y Z