Guitaretab - guitar tabs
Song name
# A B C D E F G H I J K L M N O P Q R S T U V W X Y Z

Anthrax - Madhouse tab

main riff/intro
|-------------------------------------------------|
|-------------------------------------------------|
|-------------------------------------------------|
|--0----------------------------------------------|
|--0---------------------------7---6---5---4------|
|--0-0-0-0-0-0(bunch of times)---7---6---5---3b---|
     p.m.----------------->


|-------------------------------------------------|
|-----------------------------------------------o-|
|-------------------------------------------------|
|-------------------------------------------------|
|--2---------------------------7---6---5---4----o-|
|--0-0-0-0-0-0(bunch of times)---7---6---5---3b---|
     p.m.---------------->

intro lead 

|--15-
|--15-don't know exactly but hit these notes and play around with
|-----the whammy bar a little bit
|-----
|-----
|-----


verse
|---------------------------------|
|------3------------------------3-|
|-4----2-----4------------------2-|
|-4----0--2--4---------------5--0-|
|-2-------0--2--2-2-2-2-2-2--2--0-|
|---------------------------------|
                p.m.----->
|--------------------------------------------|
|-----------------3------------------------3-|
|-4---------------2-----4------------------2-|
|-4---------------0--2--4---------------5--0-|
|-2--2-2-2-2-2-2-----0--2--2-2-2-2-2-2--2--0-|
|--------------------------------------------|
     p.m.----->            p.m.----->
[ Tab from: http://www.guitaretab.com/a/anthrax/31996.html ]
the next part you play is:
|--------------------------------------------------------------|
|--------------------------------------------------------------|
|--------------------------------------------------------------|
|--------------------------3-2-2---------------------------3---|
|------------0-----------------------------0-------------2-----|
|--0-0-0-0-1---1-0-0-0-0-1-------0-0-0-0-1---1-0-0-0-0-1-------|
   p.m.---->   p.m.---->         p.m.---->   p.m.---->


|----------------------------------------------------------|
|----------------------------------------------------------|
|----------------------------------------------------------|
|--------------------------3-2-2-----------------------5---|
|------------0-----------------------------0-----------3-6-|
|--0-0-0-0-1---1-0-0-0-0-1-------0-0-0-0-1---1-0-0-0-0---4-|
   p.m.---->   p.m.---->         p.m.---->   p.m.---->



chorus riff
|-------------------------------------------------------------------------|
|-------------------------3h5p3p0-2h3p2p0-------------------------------o-|
|--2-----2-3-----3-2----------------------2-----2-3-----3-2---------------|
|--2-----2-3-----3-2----------------------2-----2-3-----3-2-------5-4-3---|
|--0-0-0-----0-0-----0-0-0----------------0-0-0-----0-0-----0-0-0-3-2-1-o-|
|-------------------------------------------------------------------------|
     p.m.    p.m.    p.m.->                 p.m.    p.m.    p.m.->

play intro riff then go back to verse and repeat
Related for Madhouse tab
Madhouse chords by Anthrax