Song name
# A B C D E F G H I J K L M N O P Q R S T U V W X Y Z

Anthrax - Drop The Ball tab

Author: Marcin Mielniczuk 
I know it isn't complete, but it's my first solo tab which contains a compact part of solo
Tuning: Drop D

|----------------------------------------------------------|
|--12-(numerous times)---15^-15^-15^-15^-17^-18^-19^-20^~--|
|--11-(numerous times)-------------------------------------|
|----------------------------------------------------------|
|----------------------------------------------------------|
|----------------------------------------------------------|

|--15-14-12-----------------------------------------13^----|
|------------15-14-12---------------------------2^/--------|
|----------------------15-14-12----------------------------|
|--------------------------------14-13-11-13~--------------|
|----------------------------------------------------------|
|----------------------------------------------------------|
Tap to rate this tab
# A B C D E F G H I J K L M N O P Q R S T U V W X Y Z