Song name
# A B C D E F G H I J K L M N O P Q R S T U V W X Y Z

Anthrax - Refuse To Be Denied tab

#----------------------------------PLEASE NOTE---------------------------------#
#This file is the author's own work and represents their interpretation of the #
#song. You may only use this file for private study, scholarship, or research. #
#------------------------------------------------------------------------------#

REFUSE TO BE DENIED
As recorded by Anthrax
(From the 2003 Album WE'VE COME FOR YOU ALL)

Transcribed by unregistered
	

Words by John Bush Music by Anthrax

Gtr I (Db Ab Db Gb Bb Eb) - 'Untitled'
Gtr II (Db Ab Db Gb Bb Eb) - 'Untitled'
Gtr III (Db Ab Db Gb Bb Eb) - 'Untitled'
Gtr IV (Db Ab Db Gb Bb Eb) - 'Untitled'

 Intro
  Q.=95
  N.C.
 6/8
  Gtr I
  E E E E E E   E E E Q  E   E E E E E E   E E E Q  E
|-------------|------------|-------------|------------|
|-------------|------------|-------------|------------|
|-------------|------------|-------------|------------|
|---0---------|---0--------|---0---------|---0--------|
|-----------0-|------------|-----------0-|------------|
|-0---0-3h5---|-0---0-3--5-|-0---0-3h5---|-0---0-3--5-|


  Gtrs I, II                                     Gtrs III, IV
  E E E E E E   E E E Q  E   E E E E E E   E E E E E E
|-------------|------------|-------------|-------------|
|-------------|------------|-------------|-------------|
|-------------|------------|-------------|-------------|
|---0---------|---0--------|---0---------|---0---x-x-x-|
|-----------0-|------------|-----------0-|-------x-x-x-|
|-0---0-3h5---|-0---0-3--5-|-0---0-3-5---|-0---0-x-x-x-|


    D5D5D5F5G5A5  D5D5D5F5 G5  D5D5D5F5G5A5  D5D5D5F5 G5
    Gtrs III, IV
    E E E E E E   E E E Q  E   E E E E E E   E E E Q  E
||--------------|------------|-------------|--------------||
||o-------------|------------|-------------|-------------o||
||----7---------|---7--------|---7---------|---7----------||
||--0-7-0-3-5-7-|-0-7-0-3--5-|-0-7-0-3-5-7-|-0-7-0-3--5---||
||o-0-5-0-3-5-7-|-0-5-0-3--5-|-0-5-0-3-5-7-|-0-5-0-3--5--o||
||--0---0-3-5-7-|-0---0-3--5-|-0---0-3-5-7-|-0---0-3--5---||


    D5D5D5F5G5A5  D5D5D5F5  G5    D5D5D5F5 G5 A5   D5 D5 D5 F5    G5
    Gtr III
    E E E E E E   E E E Q   E  3x E E E  E  E  E    E  E  E  Q     E
||--------------|--------------||----------------|--------------------|
||o-------------|-------------o||----------------|--------------------|
||----7---------|---7----------||---7------------|-----7--------------|
||--0-7-0-3-5-7-|-0-7-0-3---5--||-0-7-0--3--5--7-|--0--7--0--3-----5--|
||o-0-5-0-3-5-7-|-0-5-0-3---5-o||-0-5-0--3--5--7-|--0--5--0--3-----5--|
||--0---0-3-5-7-|-0---0-3---5--||-0---0--3--5--7-|--0-----0--3-----5--|
|
|   Gtr IV
|   E E E E E E   E E E E E E  3x E E E  E  E  E    E  E  E  E  E  E
||--------------|--------------||----------------|--------------------|
||o-------------|-------------o||----------------|--------------------|
||--7-7-7-5-5-5-|-7-7-7-7-7-7--||-7-7-7-10-10-10-|-12-12-12-14-14-14--|
||--------------|--------------||----------------|--------------------|
||o-5-5-5-3-3-3-|-5-5-5-5-5-5-o||-5-5-5--8--8--8-|-10-10-10-12-12-12--|
||--------------|--------------||----------------|--------------------|


 Verse
  N.C.
  Gtr I
  E E E E E E   E E E Q  E   E E E E E E   E E E Q  E
|-------------|------------|-------------|------------|
|-------------|------------|-------------|------------|
|-------------|------------|-------------|------------|
|---0---------|---0--------|---0---------|---0--------|
|-----------0-|------------|-----------0-|------------|
|-0---0-3h5---|-0---0-3--5-|-0---0-3-5---|-0---0-3--5-|


  Gtrs I, II                                     Gtrs III, IV
  E E E E E E   E E E Q  E   E E E E E E   E E E E E E
|-------------|------------|-------------|-------------|
|-------------|------------|-------------|-------------|
|-------------|------------|-------------|-------------|
|---0---------|---0--------|---0---------|---0---x-x-x-|
|-----------0-|------------|-----------0-|-------x-x-x-|
|-0---0-3h5---|-0---0-3--5-|-0---0-3-5---|-0---0-x-x-x-|


    D5D5D5F5G5A5  D5D5D5F5 G5  D5D5D5F5G5A5  D5D5D5F5 G5
    Gtrs III, IV
    E E E E E E   E E E Q  E   E E E E E E   E E E Q  E
||--------------|------------|-------------|--------------||
||o-------------|------------|-------------|-------------o||
||--------------|------------|-------------|--------------||
||----7---------|---7--------|---7---------|---7----------||
||o-0-5-0-3-5-7-|-0-5-0-3--5-|-0-5-0-3-5-7-|-0-5-0-3--5--o||
||--0---0-3-5-7-|-0---0-3--5-|-0---0-3-5-7-|-0---0-3--5---||


 Pre-Chorus
  Bb5                   A5G#5 G5            C5
  E E E E E E   E E E E E E   E E E E E E   E E E E E E
|-------------|-------------|-------------|-------------|
|-------------|-------------|-------------|-------------|
|-------------|-------------|-------------|-5-5-5-5-5-5-|
|-8-8-8-8-8-8-|-8-8-8-8-7-6-|-5-5-5-5-5-5-|-5-5-5-5-5-5-|
|-8-8-8-8-8-8-|-8-8-8-8-7-6-|-5-5-5-5-5-5-|-3-3-3-3-3-3-|
|-8-8-8-8-8-8-|-8-8-8-8-7-6-|-5-5-5-5-5-5-|-------------|


  D5    C5      D5    F5G5A5  D5    F5         G5       A5
  E E E E E E   E E E E E E   E E E  E  E  E    E  E  E  E  E  E
|-------------|-------------|----------------|-------------------|
|-------------|-------------|----------------|-------------------|
|-7-7-7-5-5-5-|-------------|-7-7-7-10-10-10-|-12-12-12-14-14-14-|
|-7-7-7-5-5-5-|-0-0-0-3-5-7-|-7-7-7-10-10-10-|-12-12-12-14-14-14-|
|-5-5-5-3-3-3-|-0-0-0-3-5-7-|-5-5-5--8--8--8-|-10-10-10-12-12-12-|
|-------------|-0-0-0-3-5-7-|----------------|-------------------|


  Bb5                             A5 G#5     G5               C5
  Gtr III
   E  E  E  E  E  E    E  E  E  E  E  E    E  E  E  E  E  E    H.
|-------------------|-------------------|-------------------|--------|
|-------------------|-------------------|-------------------|--------|
|-------------------|-------------------|-------------------|--5-----|
|--8--8--8--8--8--8-|--8--8--8--8--7--6-|--5--5--5--5--5--5-|--5-----|
|--8--8--8--8--8--8-|--8--8--8--8--7--6-|--5--5--5--5--5--5-|--3-----|
|--8--8--8--8--8--8-|--8--8--8--8--7--6-|--5--5--5--5--5--5-|--------|
|
| Gtr IV
|  E  E  E  E  E  E    E  E  E  E  E  E    E  E  E  E  E  E    H.
|-------------------|-------------------|-------------------|--------|
|-------------------|-------------------|-------------------|--------|
|-17-17-17-17-17-17-|-17-17-17-17-17-17-|-17-17-17-17-17-17-|-17-----|
|-------------------|-------------------|-------------------|--------|
|-15-15-15-15-15-15-|-15-15-15-15-15-15-|-15-15-15-15-15-15-|-15-----|
|-------------------|-------------------|-------------------|--------|


   Chorus
    D5 D5 D5 F5 G5 A5   D5 D5 D5 F5  G5
    Gtr III
     E  E  E  E  E  E    E  E  E  Q   E
||--------------------|-----------------|
||o-------------------|-----------------|
||------7-------------|-----7-----------|
||---0--7--0--3--5--7-|--0--7--0--3---5-|
||o--0--5--0--3--5--7-|--0--5--0--3---5-|
||---0-----0--3--5--7-|--0-----0--3---5-|
|
|   Gtr IV
|    E  E  E  E  E  E    E  E  E  Q   E
||--12-12-12-12-12-12S|=13S12S13S12--13S|
||o-------------------|-----------------|
||---9--9--9--9--9--9S|=10S=9S10S=9--10S|
||--------------------|-----------------|
||o-------------------|-----------------|
||--------------------|-----------------|


  D5 D5 D5 F5 G5 A5   D5 D5 D5 F5  G5
   E  E  E  E  E  E    E  E  E  Q   E
|-------------------|-------------------||
|-------------------|------------------o||
|-----7-------------|-----7-------------||
|--0--7--0--3--5--7-|--0--7--0--3---5---||
|--0--5--0--3--5--7-|--0--5--0--3---5--o||
|--0-----0--3--5--7-|--0-----0--3---5---||
|
|  E  E  E  E  E  E    E  E  E  Q   E
|-12-12-12-12-12-12S|=13S12S13S12--13---||
|-------------------|------------------o||
|--9--9--9--9--9--9S|=10S=9S10S=9--10---||
|-------------------|-------------------||
|-------------------|------------------o||
|-------------------|-------------------||


  Gtr I                                          Gtrs III, IV
  E E E E E E   E E E Q  E   E E E E E E   E E E E E E
|-------------|------------|-------------|-------------|
|-------------|------------|-------------|-------------|
|-------------|------------|-------------|-------------|
|---0---------|---0--------|---0---------|---0---x-x-x-|
|-----------0-|------------|-----------0-|-------x-x-x-|
|-0---0-3h5---|-0---0-3--5-|-0---0-3-5---|-0---0-x-x-x-|


   2nd Verse
    D5D5D5F5G5A5  D5D5D5F5 G5  D5D5D5F5G5A5  D5D5D5F5 G5
    Gtrs III, IV
    E E E E E E   E E E Q  E   E E E E E E   E E E Q  E   4x
||--------------|------------|-------------|--------------||
||o-------------|------------|-------------|-------------o||
||--------------|------------|-------------|--------------||
||----7---------|---7--------|---7---------|---7----------||
||o-0-5-0-3-5-7-|-0-5-0-3--5-|-0-5-0-3-5-7-|-0-5-0-3--5--o||
||--0---0-3-5-7-|-0---0-3--5-|-0---0-3-5-7-|-0---0-3--5---||


 Pre-Chorus
  Bb5                   A5G#5 G5            C5
  E E E E E E   E E E E E E   E E E E E E   E E E E E E
|-------------|-------------|-------------|-------------|
|-------------|-------------|-------------|-------------|
|-------------|-------------|-------------|-5-5-5-5-5-5-|
|-8-8-8-8-8-8-|-8-8-8-8-7-6-|-5-5-5-5-5-5-|-5-5-5-5-5-5-|
|-8-8-8-8-8-8-|-8-8-8-8-7-6-|-5-5-5-5-5-5-|-3-3-3-3-3-3-|
|-8-8-8-8-8-8-|-8-8-8-8-7-6-|-5-5-5-5-5-5-|-------------|


  D5    C5      D5    F5G5A5  D5    F5         G5       A5
  E E E E E E   E E E E E E   E E E  E  E  E    E  E  E  E  E  E
|-------------|-------------|----------------|-------------------|
|-------------|-------------|----------------|-------------------|
|-7-7-7-5-5-5-|-------------|-7-7-7-10-10-10-|-12-12-12-14-14-14-|
|-7-7-7-5-5-5-|-0-0-0-3-5-7-|-7-7-7-10-10-10-|-12-12-12-14-14-14-|
|-5-5-5-3-3-3-|-0-0-0-3-5-7-|-5-5-5--8--8--8-|-10-10-10-12-12-12-|
|-------------|-0-0-0-3-5-7-|----------------|-------------------|


  Bb5                             A5 G#5  G5                  C5
  Gtr III
   E  E  E  E  E  E    E  E  E  E  E  E    E  E  E  E  E  E    H.
|-------------------|-------------------|-------------------|--------|
|-------------------|-------------------|-------------------|--------|
|-------------------|-------------------|-------------------|--5-----|
|--8--8--8--8--8--8-|--8--8--8--8--7--6-|--5--5--5--5--5--5-|--5-----|
|--8--8--8--8--8--8-|--8--8--8--8--7--6-|--5--5--5--5--5--5-|--3-----|
|--8--8--8--8--8--8-|--8--8--8--8--7--6-|--5--5--5--5--5--5-|--------|
|
| Gtr IV
|  E  E  E  E  E  E    E  E  E  E  E  E    E  E  E  E  E  E    H.
|-------------------|-------------------|-------------------|--------|
|-------------------|-------------------|-------------------|--------|
|-17-17-17-17-17-17-|-17-17-17-17-17-17-|-17-17-17-17-17-17-|-17-----|
|-------------------|-------------------|-------------------|--------|
|-15-15-15-15-15-15-|-15-15-15-15-15-15-|-15-15-15-15-15-15-|-15-----|
|-------------------|-------------------|-------------------|--------|


   2nd Chorus
    D5 D5 D5 F5 G5 A5   D5 D5 D5 F5  G5
     E  E  E  E  E  E    E  E  E  Q   E
||--------------------|-----------------|
||o-------------------|-----------------|
||------7-------------|-----7-----------|
||---0--7--0--3--5--7-|--0--7--0--3---5-|
||o--0--5--0--3--5--7-|--0--5--0--3---5-|
||---0-----0--3--5--7-|--0-----0--3---5-|
|
|    E  E  E  E  E  E    E  E  E  Q   E
||--12-12-12-12-12-12S|=13S12S13S12--13S|
||o-------------------|-----------------|
||---9--9--9--9--9--9S|=10S=9S10S=9--10S|
||--------------------|-----------------|
||o-------------------|-----------------|
||--------------------|-----------------|


  D5 D5 D5 F5 G5 A5   D5 D5 D5 F5  G5
   E  E  E  E  E  E    E  E  E  Q   E
|-------------------|-------------------||
|-------------------|------------------o||
|-----7-------------|-----7-------------||
|--0--7--0--3--5--7-|--0--7--0--3---5---||
|--0--5--0--3--5--7-|--0--5--0--3---5--o||
|--0-----0--3--5--7-|--0-----0--3---5---||
|
|  E  E  E  E  E  E    E  E  E  Q   E
|-12-12-12-12-12-12S|=13S12S13S12--13---||
|-------------------|------------------o||
|--9--9--9--9--9--9S|=10S=9S10S=9--10---||
|-------------------|-------------------||
|-------------------|------------------o||
|-------------------|-------------------||


   Bridge
                                              1.              2.
    D5  N.C.      D5EbN.C.      D5  N.C.            F5G5G#5   N.C.
    Gtr III
                                              PM--|           PM--|
    E E H         E E H         E E H         E E E E E E     E E E  E  E  E
||--------------|-------------|-------------|--------------||----------------|
||o-------------|-------------|-------------|-------------o||----------------|
||--------------|-------------|-------------|--------------||-------10-10-10-|
||--0-0---------|-0-1---------|-0-0---------|-------3-5-6--||----------------|
||o-0-0---------|-0-1---------|-0-0---------|-------3-5-6-o||--------8--8--8-|
||--0-0---------|-0-1---------|-0-0---------|-0-0-0-3-5-6--||-0-0-0----------|
|
|   Gtr IV
|   PM  PM  PM~   PM  PM  PM~   PM  PM  PM~   PM--|           PM--|
|   E E E E E E   E E E E E E   E E E E E E   E E E E E E     E E E  E  E  E
||--------------|-------------|-------------|--------------||----------------|
||o-------------|-------------|-------------|-------------o||----------------|
||----7---7---7-|---8---8---8-|---7---7---7-|--------------||-------10-10-10-|
||--------------|-------------|-------------|-------3-5-6--||----------------|
||o---5---5---5-|---6---6---6-|---5---5---5-|-------3-5-6-o||--------8--8--8-|
||--0---0---0---|-0---0---0---|-0---0---0---|-0-0-0-3-5-6--||-0-0-0----------|


                                              1.              2.
    N.C.                                            F5G5G#5   N.C.
    Gtrs III, IV
    PM  PM  PM~   PM  PM  PM~   PM  PM  PM~   PM--|           PM--|
    E E E E E E   E E E E E E   E E E E E E   E E E E E E     E E E  E  E  E
||--------------|-------------|-------------|--------------||----------------|
||o-------------|-------------|-------------|-------------o||----------------|
||----7---7---7-|---8---8---8-|---7---7---7-|--------------||-------10-10-10-|
||--------------|-------------|-------------|-------3-5-6--||----------------|
||o---5---5---5-|---6---6---6-|---5---5---5-|-------3-5-6-o||--------8--8--8-|
||--0---0---0---|-0---0---0---|-0---0---0---|-0-0-0-3-5-6--||-0-0-0----------|


  Bb5                   A5G#5 G5            C5
  E E E E E E   E E E E E E   E E E E E E   E E E E E E
|-------------|-------------|-------------|-------------|
|-------------|-------------|-------------|-------------|
|-------------|-------------|-------------|-5-5-5-5-5-5-|
|-8-8-8-8-8-8-|-8-8-8-8-7-6-|-5-5-5-5-5-5-|-5-5-5-5-5-5-|
|-8-8-8-8-8-8-|-8-8-8-8-7-6-|-5-5-5-5-5-5-|-3-3-3-3-3-3-|
|-8-8-8-8-8-8-|-8-8-8-8-7-6-|-5-5-5-5-5-5-|-------------|


  D5    C5      D5    F5G5A5  D5    F5         G5       A5
  E E E E E E   E E E E E E   E E E  E  E  E    E  E  E  E  E  E
|-------------|-------------|----------------|-------------------|
|-------------|-------------|----------------|-------------------|
|-7-7-7-5-5-5-|-------------|-7-7-7-10-10-10-|-12-12-12-14-14-14-|
|-7-7-7-5-5-5-|-0-0-0-3-5-7-|-7-7-7-10-10-10-|-12-12-12-14-14-14-|
|-5-5-5-3-3-3-|-0-0-0-3-5-7-|-5-5-5--8--8--8-|-10-10-10-12-12-12-|
|-------------|-0-0-0-3-5-7-|----------------|-------------------|


  Bb5                             A5G#5  G5                  C5
  Gtr III
   E  E  E  E  E  E    E  E  E  E E  E    E  E  E  E  E  E    H.
|-------------------|------------------|-------------------|-------------|
|-------------------|------------------|-------------------|-------------|
|-------------------|------------------|-------------------|--5----------|
|--8--8--8--8--8--8-|--8--8--8--8-7--6-|--5--5--5--5--5--5-|--5----------|
|--8--8--8--8--8--8-|--8--8--8--8-7--6-|--5--5--5--5--5--5-|--3----------|
|--8--8--8--8--8--8-|--8--8--8--8-7--6-|--5--5--5--5--5--5-|-------------|
|
| Gtr IV
|  E  E  E  E  E  E    E  E  E  Q    E    E  E  E  E  E  E    E  E  H
|-12-12-12-12-12-12S|=13S12S13S12---13S|=12-12-12-12-12-12-|-12s13s12----|
|-------------------|------------------|-------------------|-------------|
|--9--9--9--9--9--9S|=10S=9S10S=9---10S|==9--9--9--9--9--9-|--9s10s=9----|
|-------------------|------------------|-------------------|-------------|
|-------------------|------------------|-------------------|-------------|
|-------------------|------------------|-------------------|-------------|


 Drum Solo
    >
   +H.             +H.         +H.         +H.         +H.
|---------------|-----------|-----------|-----------|---------|
|---------------|-----------|-----------|-----------|---------|
|--(5)----------|--(5)------|--(5)------|--(5)------|--(5)----|
|--(5)----------|--(5)------|--(5)------|--(5)------|--(5)----|
|--(3)----------|--(3)------|--(3)------|--(3)------|--(3)----|
|---------------|-----------|-----------|-----------|---------|
|
|   >
|  +E   E  H       +H.         +H.         +H.         +H.
|-(12)s13s12----|-(12)------|-(12)------|-(12)------|-(12)----|
|---------------|-----------|-----------|-----------|---------|
|--(9)s10s=9----|--(9)------|--(9)------|--(9)------|--(9)----|
|---------------|-----------|-----------|-----------|---------|
|---------------|-----------|-----------|-----------|---------|
|---------------|-----------|-----------|-----------|---------|


   Out Chorus
    D5D5D5F5G5A5  D5D5D5F5 G5  D5D5D5F5G5A5  D5D5D5F5 G5
    Gtrs III, IV
    E E E E E E   E E E Q  E   E E E E E E   E E E Q  E
||--------------|------------|-------------|--------------||
||o-------------|------------|-------------|-------------o||
||----7---------|---7--------|---7---------|---7----------||
||--0-7-0-3-5-7-|-0-7-0-3--5-|-0-7-0-3-5-7-|-0-7-0-3--5---||
||o-0-5-0-3-5-7-|-0-5-0-3--5-|-0-5-0-3-5-7-|-0-5-0-3--5--o||
||--0---0-3-5-7-|-0---0-3--5-|-0---0-3-5-7-|-0---0-3--5---||


  D5 D5 D5 F5 G5 A5   D5 D5 D5 F5    G5
  Gtr III
   E  E  E  E  E  E    E  E  E  Q     E
|-------------------|-------------------|
|-------------------|-------------------|
|-----7-------------|-----7-------------|
|--0--7--0--3--5--7-|--0--7--0--3-----5-|
|--0--5--0--3--5--7-|--0--5--0--3-----5-|
|--0-----0--3--5--7-|--0-----0--3-----5-|
|
| Gtr IV
|  E  E  E  E  E  E    E  E  E  E  E  E
|-12-12-12-12-12-12-|-13-13-13-13-13-13-|
|-------------------|-------------------|
|--9--9--9--9--9--9-|-10-10-10-10-10-10-|
|-------------------|-------------------|
|-------------------|-------------------|
|-------------------|-------------------|


  D5 D5 D5 F5 G5 A5   D5 D5 D5 F5    G5
   E  E  E  E  E  E    E  E  E  Q     E
|-------------------|-------------------|
|-------------------|-------------------|
|-----7-------------|-----7-------------|
|--0--7--0--3--5--7-|--0--7--0--3-----5-|
|--0--5--0--3--5--7-|--0--5--0--3-----5-|
|--0-----0--3--5--7-|--0-----0--3-----5-|
|
|  E  E  E  E  E  E    E  E  E  E  E  E
|-15-15-15-15-15-15-|-17-17-17-17-17-17-|
|-------------------|-------------------|
|-12-12-12-12-12-12-|-14-14-14-14-14-14-|
|-------------------|-------------------|
|-------------------|-------------------|
|-------------------|-------------------|


  D5 D5 D5 F5 G5 A5   D5 D5 D5 F5    G5   D5 D5 D5 F5 G5 A5   D5 D5 D5F5G5A5
   E  E  E  E  E  E    E  E  E  Q     E    E  E  E  E  E  E    E  E E E E E
|-------------------|-------------------|-------------------|---------------*|
|-------------------|-------------------|-------------------|---------------*|
|-----7-------------|-----7-------------|-----7-------------|-----7---------*|
|--0--7--0--3--5--7-|--0--7--0--3-----5-|--0--7--0--3--5--7-|--0--7-0-3-5-7-*|
|--0--5--0--3--5--7-|--0--5--0--3-----5-|--0--5--0--3--5--7-|--0--5-0-3-5-7-*|
|--0-----0--3--5--7-|--0-----0--3-----5-|--0-----0--3--5--7-|--0----0-3-5-7-*|
|
|  E  E  E  E  E  E    E  E  E  E  E  E    E  E  E  E  E  E    E  E E E E E
|-17-17-17-17-17-17-|-17-17-17-17-17-17-|-17-17-17-17-17-17-|-17-17---------*|
|-------------------|-------------------|-------------------|---------------*|
|-14-14-14-14-14-14-|-14-14-14-14-14-14-|-14-14-14-14-14-14-|-14-14---------*|
|-------------------|-------------------|-------------------|-------0-3-5-7-*|
|-------------------|-------------------|-------------------|-------0-3-5-7-*|
|-------------------|-------------------|-------------------|-------0-3-5-7-*|



Duration Legend
---------------
W - whole; H - half; Q - quarter; E - 8th; S - 16th; T - 32nd; X - 64th; a - acciaccatura
+ - note tied to previous; . - note dotted; .. - note double dotted
Uncapitalized letters represent notes that are staccato (1/2 duration)
Irregular groupings are notated above the duration line
Duration letters will always appear directly above the note/fret number it represents the
duration for.  Duration letters with no fret number below them represent rests.  Multi-
bar rests are notated in the form Wxn, where n is the number of bars to rest for.  Low
melody durations appear below the staff

Tablature Legend
----------------
 h   - hammer-on
 p   - pull-off
 b   - bend
 pb  - pre-bend
 r   - bend release (if no number after the r, then release immediately)
 /\  - slide into or out of (from/to "nowhere")
 s   - legato slide
 S   - shift slide
 - natural harmonic
[n]  - artificial harmonic
n(n) - tapped harmonic
 ~   - vibrato
 tr  - trill
 T   - tap
 TP  - trem. picking
 PM  - palm muting
\n/  - tremolo bar dip; n = amount to dip
 \n  - tremolo bar down
 n/  - tremolo bar up
/n\  - tremolo bar inverted dip
 =   - hold bend; also acts as connecting device for hammers/pulls
 <> - volume swell (louder/softer)
 x   - on rhythm slash represents muted slash
 o   - on rhythm slash represents single note slash

Misc Legend
-----------
 |  - bar
||  - double bar
||o - repeat start
o|| - repeat end
*|  - double bar (ending)
 :  - bar (freetime)
 $  - Segno
 &  - Coda
Tempo markers -  = BPM(8/16=s8/s16), where s8 = swing 8ths, s16 = swing 16ths

Tap to rate this tab
# A B C D E F G H I J K L M N O P Q R S T U V W X Y Z