Song name
# A B C D E F G H I J K L M N O P Q R S T U V W X Y Z

Anthrax - Medusa tab

Help us improve GuitareTab! Take a short survey!
#----------------------------------PLEASE NOTE---------------------------------#
#This file is the author's own work and represents their interpretation of the #
#song. You may only use this file for private study, scholarship, or research. #
#------------------------------------------------------------------------------#

MEDUSA
As recorded by Anthrax
(From the 1985 Album SPREADING THE DISEASE)

Transcribed by warlockmb
	

Words and Music by Anthrax
Arranged by warlockmb

Gtr I (E A D G B E) - 'Untitled'
Gtr II (E A D G B E) - 'Untitled'
Gtr III (E A D G B E) - 'Untitled'

                 Intro
  Moderately Fast Rock Q=160
            F#5   N.C.          F#5 N.C.          F#5 N.C.          F#5
 4/4
  Gtrs I, II
                  PM|   PM  PM|     PM|   PM  PM|     PM|   PM  PM|
  H    Q  E E     E E E E E E E E   E E E E E E E E   E E E E E E E E
|-------------||------------------|-----------------|-----------------|
|-------------||o-----------------|-----------------|-----------------|
|-------------||------------------|-----------------|-----------------|
|-------------||------------------|-----------------|-----------------|
|-----------4-||o-----4---5-----4-|-----4---5-----4-|-----4---5-----4-|
|-----------2-||--2-2---2---2-2-2-|-2-2---2---2-2-2-|-2-2---2---2-2-2-|


  N.C.          E5  N.C.          E5  N.C.          E5  N.C.          E5
  PM|   PM  PM|     PM|   PM  PM|     PM|   PM  PM|     PM|   PM  PM|
  E E E E E E E E   E E E E E E E E   E E E E E E E E   E E E E E E E E
|-----------------|-----------------|-----------------|------------------|
|-----------------|-----------------|-----------------|------------------|
|-----------------|-----------------|-----------------|------------------|
|-----------------|---------2-------|---------2-------|---------2--------|
|-----4---5-----2-|-----2---------2-|-----2---------2-|-----2---------2--|
|-2-2---2---2-2-0-|-0-0---0---0-0-0-|-0-0---0---0-0-0-|-0-0---0---0-0-0--|


                     Verse
  N.C.          F#5   N.C.          F#5 N.C.          F#5 N.C.          F#5
  PM|   PM  PM|       PM|   PM  PM|     PM|   PM  PM|     PM|   PM  PM|
  E E E E E E E E     E E E E E E E E   E E E E E E E E   E E E E E E E E
|------------------||-----------------|-----------------|------------------|
|-----------------o||-----------------|-----------------|------------------|
|------------------||-----------------|-----------------|------------------|
|---------2--------||-----------------|-----------------|------------------|
|-----2---------4-o||-----4---5-----4-|-----4---5-----4-|-----4---5-----4--|
|-0-0---0---0-0-2--||-2-2---2---2-2-2-|-2-2---2---2-2-2-|-2-2---2---2-2-2--|


  N.C.          E5  N.C.          E5  N.C.          E5  N.C.          E5
  PM|   PM  PM|     PM|   PM  PM|     PM|   PM  PM|     PM|   PM  PM|
  E E E E E E E E   E E E E E E E E   E E E E E E E E   E E E E E E E E
|-----------------|-----------------|-----------------|------------------|
|-----------------|-----------------|-----------------|------------------|
|-----------------|-----------------|-----------------|------------------|
|-----------------|---------2-------|---------2-------|---------2--------|
|-----4---5-----2-|-----2---------2-|-----2---------2-|-----2---------2--|
|-2-2---2---2-2-0-|-0-0---0---0-0-0-|-0-0---0---0-0-0-|-0-0---0---0-0-0--|


  N.C.          F#5 N.C.          F#5 N.C.          F#5 N.C.          F#5
  PM|   PM  PM|     PM|   PM  PM|     PM|   PM  PM|     PM|   PM  PM|
  E E E E E E E E   E E E E E E E E   E E E E E E E E   E E E E E E E E
|-----------------|-----------------|-----------------|------------------|
|-----------------|-----------------|-----------------|------------------|
|-----------------|-----------------|-----------------|------------------|
|---------2-------|-----------------|-----------------|------------------|
|-----2---------4-|-----4---5-----4-|-----4---5-----4-|-----4---5-----4--|
|-0-0---0---0-0-2-|-2-2---2---2-2-2-|-2-2---2---2-2-2-|-2-2---2---2-2-2--|


  N.C.          E5  N.C.          E5  N.C.          E5  N.C.          E5
  PM|   PM  PM|     PM|   PM  PM|     PM|   PM  PM|     PM|   PM  PM|
  E E E E E E E E   E E E E E E E E   E E E E E E E E   E E E E E E E E
|-----------------|-----------------|-----------------|------------------|
|-----------------|-----------------|-----------------|------------------|
|-----------------|-----------------|-----------------|------------------|
|-----------------|---------2-------|---------2-------|---------2--------|
|-----4---5-----2-|-----2---------2-|-----2---------2-|-----2---------2--|
|-2-2---2---2-2-0-|-0-0---0---0-0-0-|-0-0---0---0-0-0-|-0-0---0---0-0-0--|


                    Chorus
  N.C.               E5F#5     F#5    E5F#5     A5 E5
  PM|   PM  PM--|          PM|              PM|
  E E E E E E E E    E E E S S H      E E E S S Q  Q
|-----------------||----------------|-----------------|
|-----------------||----------------|-----------------|
|-----------------||----------------|-----------------|
|---------2-------||----------------|-----------2-----|
|-----2-----------||-2-4-------4----|-2-4-------0--2--|
|-0-0---0---0-0-0-||-0-2---0-0-2----|-0-2---0-0----0--|


  E5F#5     F#5    E5F#5     B5 C5   E5F#5     F#5    E5F#5     A5 E5
        PM|              PM|               PM|              PM|
  E E E S S H      E E E S S Q  Q    E E E S S H      E E E S S Q  Q
|----------------|-----------------|----------------|------------------|
|----------------|-----------------|----------------|------------------|
|----------------|-----------------|----------------|------------------|
|----------------|-----------4--5--|----------------|-----------2------|
|-2-4-------4----|-2-4-------2--3--|-2-4-------4----|-2-4-------0--2---|
|-0-2---0-0-2----|-0-2---0-0-------|-0-2---0-0-2----|-0-2---0-0----0---|


                                     Verse
  E5F#5     F#5    E5F#5     B5 C5    F#5           F#5 N.C.          F#5
        PM|              PM|            PM  PM  PM|     PM|   PM  PM|
  E E E S S H      E E E S S Q  Q     E E E E E E E E   E E E E E E E E
|----------------|-----------------||-----------------|------------------|
|----------------|-----------------||-----------------|------------------|
|----------------|-----------------||-----------------|------------------|
|----------------|-----------4--5--||-----------------|------------------|
|-2-4-------4----|-2-4-------2--3--||-4---4---5-----4-|-----4---5-----4--|
|-0-2---0-0-2----|-0-2---0-0-------||-2-2---2---2-2-2-|-2-2---2---2-2-2--|


  N.C.          F#5 N.C.          E5
  Gtrs I, II
  PM|   PM  PM|     PM|   PM  PM|
  E E E E E E E E   E E E E E E E E
|-----------------|-----------------|
|-----------------|-----------------|
|-----------------|-----------------|
|-----------------|-----------------|
|-----4---5-----4-|-----4---5-----2-|
|-2-2---2---2-2-2-|-2-2---2---2-2-0-|
|
| Gtr III
| W                 W
|-----------------|-----------------|
|-----------------|-----------------|
|-----------------|-----------------|
|-----------------|-----------------|
|-----------------|-----------------|
|-----------------|-----------------|


  N.C.          E5    N.C.                    E5
  PM|   PM  PM|         PM-|   PM       PM-|
  E E E E E E E   E     E  E E E   E    E   E  E
|-------------------|-----------------------------|
|-------------------|-----------------------------|
|-------------------|-----------------------------|
|---------2---------|--------------2--------------|
|-----2-----------2-|--------2-----------------2--|
|-0-0---0---0-0---0-|---0--0---0--------0---0--0--|
|
|                       \5
| H       Q   E   E    +H         +E   +E   E  E
|-------------------|-----------------------------|
|---------------/14-|-(14)-------(14)-(14)-14-12--|
|---------------/14-|-(14)-------(14)-(14)-14-12--|
|-------------------|-----------------------------|
|-------------------|-----------------------------|
|-------------------|-----------------------------|


  N.C.                             E5
   PM---|         PM       PM---|
   E     E     E  E  E     E     E  E
|-------------------------------------|
|-------------------------------------|
|-------------------------------------|
|--------------------2----------------|
|--------------2--------------------2-|
|--0-----0--------0--------0-----0--0-|
|
|  E     S  S  E  E  E     S  S  E  E
|-------------------------------------|
|-------------------15b17-15p12----12-|
|-14b16-14p12-------------------14----|
|-------------14-12-------------------|
|-------------------------------------|
|-------------------------------------|


  N.C.                   F#5     N.C.          F#5 N.C.          F#5
   PM---|     PM     PM|         PM|   PM  PM|     PM|   PM  PM|
   E    E  E  E   E  E E   E     E E E E E E E E   E E E E E E E E
|------------------------------|-----------------|------------------|
|------------------------------|-----------------|------------------|
|------------------------------|-----------------|------------------|
|-----------------2------------|-----------------|------------------|
|----------2---------------4---|-----4---5-----4-|-----4---5-----4--|
|--0----0-----0------0-0---2---|-2-2---2---2-2-2-|-2-2---2---2-2-2--|
|
|                 ~~~~
|  Q       e  E  +Q.      +E     W                 W
|-15b17---15-15-(15)-----(15)\-|-----------------|------------------|
|------------------------------|-----------------|------------------|
|------------------------------|-----------------|------------------|
|------------------------------|-----------------|------------------|
|------------------------------|-----------------|------------------|
|------------------------------|-----------------|------------------|


  N.C.          F#5 N.C.          E5  N.C.          E5  N.C.          E5
  PM|   PM  PM|     PM|   PM  PM|     PM|   PM  PM|     PM|   PM  PM|
  E E E E E E E E   E E E E E E E E   E E E E E E E E   E E E E E E E E
|-----------------|-----------------|-----------------|------------------|
|-----------------|-----------------|-----------------|------------------|
|-----------------|-----------------|-----------------|------------------|
|-----------------|-----------------|---------2-------|---------2--------|
|-----4---5-----4-|-----4---5-----2-|-----2---------2-|-----2---------2--|
|-2-2---2---2-2-2-|-2-2---2---2-2-0-|-0-0---0---0-0-0-|-0-0---0---0-0-0--|


                                      Chorus
  N.C.          E5  N.C.               E5F#5     F#5    E5F#5     A5 E5
  PM|   PM  PM|     PM|   PM  PM--|          PM|              PM|
  E E E E E E E E   E E E E E E E E    E E E S S H      E E E S S Q  Q
|-----------------|-----------------||----------------|------------------|
|-----------------|-----------------||----------------|------------------|
|-----------------|-----------------||----------------|------------------|
|---------2-------|---------2-------||----------------|-----------2------|
|-----2---------2-|-----2-----------||-2-4-------4----|-2-4-------0--2---|
|-0-0---0---0-0-0-|-0-0---0---0-0-0-||-0-2---0-0-2----|-0-2---0-0----0---|


  E5F#5     F#5    E5F#5     B5 C5   E5F#5     F#5      E5F#5     A5  E5
  Gtrs I, II
        PM|              PM|               PM|                PM|
  E E E S S H      E E E S S Q  Q    E E E S S H        E E E S S Q   Q
|----------------|-----------------|------------------|--------------------|
|----------------|-----------------|------------------|--------------------|
|----------------|-----------------|------------------|--------------------|
|----------------|-----------4--5--|------------------|-----------2--------|
|-2-4-------4----|-2-4-------2--3--|-2-4-------4------|-2-4-------0---2----|
|-0-2---0-0-2----|-0-2---0-0-------|-0-2---0-0-2------|-0-2---0-0-----0----|
|
| Gtr III
| W                W                 H         Q  E E   E E E E   E E E E
|----------------|-----------------|------------------|--------------------|
|----------------|-----------------|------------------|--------------------|
|----------------|-----------------|------------------|--------------------|
|----------------|-----------------|------------------|--------------------|
|----------------|-----------------|----------------xs|=xsxsxsxs==xsxsxsx--|
|----------------|-----------------|----------------xs|=xsxsxsxs==xsxsxsx--|


  E5F#5     F#5    E5F#5     B5 C5
        PM|              PM|
  E E E S S H      E E E S S Q  Q
|----------------|-----------------||
|----------------|-----------------||
|----------------|-----------------||
|----------------|-----------4--5--||
|-2-4-------4----|-2-4-------2--3--||
|-0-2---0-0-2----|-0-2---0-0-------||


 Bridge
  N.C.                  N.C.
  PM----|               PM----|
  E S S e E +E  E E E   E S S e E +E  E E E
|---------------------|----------------------|
|---------------------|----------------------|
|---------------------|----------------------|
|---------5-(5)-------|----------------------|
|-7-7-7-7-------7-6-5-|---------5-(5)--------|
|---------------------|-7-7-7-7-------7-6-5--|


  N.C.                  N.C.
  Gtrs I, II
  PM----|                PM-------|
  E S S e E +E  E E E    E    S S e E +E  E E E
|---------------------|-------------------------|
|---------------------|-------------------------|
|---------------------|-------------------------|
|---------------------|-------------------------|
|---------3-(3)-------|-------------5-(5)-------|
|-5-5-5-5-------5-4-3-|--7----7-7-7-------5-6-7-|
|
| Gtr III
|                        ~~~~~
| W                      W
|---------------------|-[5]b7-------------------|
|---------------------|-------------------------|
|---------------------|-------------------------|
|---------------------|-------------------------|
|---------------------|-------------------------|
|---------------------|-------------------------|


  N.C.                  N.C.
  PM----|               PM----|
  E S S e E +E  E E E   E S S e E +E  E E E
|---------------------|----------------------|
|---------------------|----------------------|
|---------------------|----------------------|
|---------5-(5)-------|----------------------|
|-7-7-7-7-------7-6-5-|---------5-(5)--------|
|---------------------|-7-7-7-7-------7-6-5--|
|
| W                     W
|---------------------|----------------------|
|---------------------|----------------------|
|---------------------|----------------------|
|---------------------|----------------------|
|---------------------|----------------------|
|---------------------|----------------------|


                         Breakdown
  N.C.                    F#5/C#  A5F#E5F#5/C#
  PM----|
  E S S e E +E  E E E     E S S E E E E Q     E S S E S S E S S E S S  4x
|---------------------||--------------------|--------------------------||
|---------------------||o-------------------|-------------------------o||
|---------------------||----------2---------|--------------------------||
|---------------------||--4-4-4-4-2-4-2-4\--|--------------------------||
|---------3-(3)-------||o-4-4-4-4---4-2-4\--|-x-x-x-x-x-x-x-x-x-x-x-x-o||
|-5-5-5-5-------5-4-3-||--------------------|-x-x-x-x-x-x-x-x-x-x-x-x--||


 Verse
  F#5           F#5 N.C.          F#5 N.C.          F#5 N.C.          E5
    PM  PM  PM|     PM|   PM  PM|     PM|   PM  PM|     PM|   PM  PM|
  E E E E E E E E   E E E E E E E E   E E E E E E E E   E E E E E E E E
|-----------------|-----------------|-----------------|------------------|
|-----------------|-----------------|-----------------|------------------|
|-----------------|-----------------|-----------------|------------------|
|-----------------|-----------------|-----------------|------------------|
|-4---4---5-----4-|-----4---5-----4-|-----4---5-----4-|-----4---5-----2--|
|-2-2---2---2-2-2-|-2-2---2---2-2-2-|-2-2---2---2-2-2-|-2-2---2---2-2-0--|


  N.C.          E5  N.C.          E5
  Gtrs I, II
  PM|   PM  PM|     PM|   PM  PM|
  E E E E E E E E   E E E E E E E E
|-----------------|-----------------|
|-----------------|-----------------|
|-----------------|-----------------|
|---------2-------|---------2-------|
|-----2---------2-|-----2---------2-|
|-0-0---0---0-0-0-|-0-0---0---0-0-0-|
|
| Gtr III
| W                 W
|-----------------|-----------------|
|-----------------|-----------------|
|-----------------|-----------------|
|-----------------|-----------------|
|-----------------|-----------------|
|-----------------|-----------------|


  N.C.                             E5   N.C.                   F#5
   PM---|         PM       PM---|        PM---|     PM     PM|
   E     E     E  E  E     E     E  E    E    E  E  E   E  E E   E
|-------------------------------------|-------------------------------|
|-------------------------------------|-------------------------------|
|-------------------------------------|-------------------------------|
|--------------------2----------------|-----------------2-------------|
|--------------2--------------------2-|----------2---------------4----|
|--0-----0--------0--------0-----0--0-|--0----0-----0------0-0---2----|
|
|                                                       ~~~~
|  E     S  S  E  E  E     S  S  E  E    Q       e  E  +Q.      +E
|-------------------------------------|-15b17---15-15-(15)-----(15)\--|
|-------------------15b17-15p12----12-|-------------------------------|
|-14b16-14p12-------------------14----|-------------------------------|
|-------------14-12-------------------|-------------------------------|
|-------------------------------------|-------------------------------|
|-------------------------------------|-------------------------------|


  N.C.          F#5 N.C.          F#5 N.C.          F#5 N.C.          E5
  PM|   PM  PM|     PM|   PM  PM|     PM|   PM  PM|     PM|   PM  PM|
  E E E E E E E E   E E E E E E E E   E E E E E E E E   E E E E E E E E
|-----------------|-----------------|-----------------|------------------|
|-----------------|-----------------|-----------------|------------------|
|-----------------|-----------------|-----------------|------------------|
|-----------------|-----------------|-----------------|------------------|
|-----4---5-----4-|-----4---5-----4-|-----4---5-----4-|-----4---5-----2--|
|-2-2---2---2-2-2-|-2-2---2---2-2-2-|-2-2---2---2-2-2-|-2-2---2---2-2-0--|


  N.C.          E5  N.C.          E5  N.C.          E5  N.C.
  PM|   PM  PM|     PM|   PM  PM|     PM|   PM  PM|     PM|   PM  PM--|
  E E E E E E E E   E E E E E E E E   E E E E E E E E   E E E E E E E E
|-----------------|-----------------|-----------------|------------------||
|-----------------|-----------------|-----------------|------------------||
|-----------------|-----------------|-----------------|------------------||
|---------2-------|---------2-------|---------2-------|---------2--------||
|-----2---------2-|-----2---------2-|-----2---------2-|-----2------------||
|-0-0---0---0-0-0-|-0-0---0---0-0-0-|-0-0---0---0-0-0-|-0-0---0---0-0-0--||


 Chorus
  E5F#5     F#5    E5F#5     A5 E5   E5F#5     F#5    E5F#5     B5 C5
        PM|              PM|               PM|              PM|
  E E E S S H      E E E S S Q  Q    E E E S S H      E E E S S Q  Q
|----------------|-----------------|----------------|------------------|
|----------------|-----------------|----------------|------------------|
|----------------|-----------------|----------------|------------------|
|----------------|-----------2-----|----------------|-----------4--5---|
|-2-4-------4----|-2-4-------0--2--|-2-4-------4----|-2-4-------2--3---|
|-0-2---0-0-2----|-0-2---0-0----0--|-0-2---0-0-2----|-0-2---0-0--------|


  E5F#5     F#5          E5   F#5     A5      E5
  Gtrs I, II
        PM|                       PM|
  E E E S S H              E  E E S S  Q      Q
|----------------------|-------------------------|
|----------------------|-------------------------|
|----------------------|-------------------------|
|----------------------|---------------2---------|
|-2-4-------4----------|---2--4--------0------2--|
|-0-2---0-0-2----------|---0--2---0-0---------0--|
|
| Gtr III
|                   \5
|                                      ~~~~~~
| H         Q  S S  E     +H           H
|----------------------|-------------------------|
|--------------x-x-14--|-(14)---------17b19\-----|
|------------------14--|-(14)--------------------|
|----------------------|-------------------------|
|----------------------|-------------------------|
|----------------------|-------------------------|


  E5F#5     F#5    E5F#5     B5 C5
        PM|              PM|
  E E E S S H      E E E S S Q  Q
|----------------|-----------------||
|----------------|-----------------||
|----------------|-----------------||
|----------------|-----------4--5--||
|-2-4-------4----|-2-4-------2--3--||
|-0-2---0-0-2----|-0-2---0-0-------||
|
| W                W
|----------------|-----------------||
|----------------|-----------------||
|----------------|-----------------||
|----------------|-----------------||
|----------------|-----------------||
|----------------|-----------------||


 Bridge
  N.C.                  N.C.
  PM----|               PM----|
  E S S e E +E  E E E   E S S e E +E  E E E
|---------------------|---------------------|
|---------------------|---------------------|
|---------------------|---------------------|
|---------5-(5)-------|---------------------|
|-7-7-7-7-------7-6-5-|---------5-(5)-------|
|---------------------|-7-7-7-7-------7-6-5-|


  N.C.                  N.C.
  PM----|               PM----|
  E S S e E +E  E E E   E S S e E +E  E E E
|---------------------|----------------------|
|---------------------|----------------------|
|---------------------|----------------------|
|---------------------|----------------------|
|---------3-(3)-------|---------5-(5)--------|
|-5-5-5-5-------5-4-3-|-7-7-7-7-------5-6-7--|


  N.C.                  N.C.                  N.C.
  PM----|               PM----|               PM----|
  E S S e E +E  E E E   E S S e E +E  E E E   E S S e E +E  E E E
|---------------------|---------------------|---------------------||
|---------------------|---------------------|---------------------||
|---------------------|---------------------|---------------------||
|---------5-(5)-------|---------------------|---------------------||
|-7-7-7-7-------7-6-5-|---------5-(5)-------|---------3-(3)-------||
|---------------------|-7-7-7-7-------7-6-5-|-5-5-5-5-------5-4-3-||


   Breakdown
    F#5/C#  A5F#E5F#5/C#N.C.
    Gtr I
    E S S E E E E Q     E S S E S S E S S E S S  4x
||--------------------|--------------------------||
||o-------------------|-------------------------o||
||----------2---------|--------------------------||
||--4-4-4-4-2-4-2-4\--|--------------------------||
||o-4-4-4-4---4-2-4\--|-x-x-x-x-x-x-x-x-x-x-x-x-o||
||--------------------|-x-x-x-x-x-x-x-x-x-x-x-x--||
|
|   Gtr II
|   E S S E E E E Q     E S S E S S E S S E S S  4x
||--------------------|--------------------------||
||o-------------------|-------------------------o||
||----------2---------|--------------------------||
||--4-4-4-4-2-4-2-4\--|--------------------------||
||o-4-4-4-4---4-2-4\--|-x-x-x-x-x-x-x-x-x-x-x-x-o||
||--------------------|-x-x-x-x-x-x-x-x-x-x-x-x--||


 Guitar Solo
  F#5/C#   A5F#5/CE5/B F#5/C#
   E S S E E   E    E     Q
|-------------------------------|
|-------------------------------|
|----------2--------------------|
|--4-4-4-4-2---4----2-----4\----|
|--4-4-4-4-----4----2-----4\----|
|-------------------------------|
|
|  ~~
|  H          +E    E    +Q
|-19---------(19)---------------|
|-----------------<12>-(<12>)---|
|-------------------------------|
|-------------------------------|
|-------------------------------|
|-------------------------------|


  N.C.                         F#5/C#          A5F#E5F#5/C#
   E  S S E S S E S S E  S S   E   S S   E     E E E   Q
|----------------------------|-------------------------------|
|----------------------------|-------------------------------|
|----------------------------|-----------------2-------------|
|----------------------------|-4---4-4---4-----2-4-2---4\----|
|--x--x-x-x-x-x-x-x-x-x--x-x-|-4---4-4---4-------4-2---4\----|
|--x--x-x-x-x-x-x-x-x-x--x-x-|-------------------------------|
|
|  H.                 E  E     E   E    +H            +E   E
|----------------------------|----------------------------14-|
|-<7>------------------------|---/17---(17)b19-------(17)----|
|---------------------5S19---|-------------------------------|
|----------------------------|-------------------------------|
|----------------------------|-------------------------------|
|----------------------------|-------------------------------|


  N.C.
   E    S S E S S  E    S S E  S  S
|------------------------------------|
|------------------------------------|
|------------------------------------|
|------------------------------------|
|--x----x-x-x-x-x--x----x-x-x--x--x--|
|--x----x-x-x-x-x--x----x-x-x--x--x--|
|
|  ~~~~~~~~~~~~~~~~~~~~~
|  H               Q.          E
|------------------------------------|
|-17b19-----------17b19-------17\----|
|------------------------------------|
|------------------------------------|
|------------------------------------|
|------------------------------------|


  F#5/C#            A5/E  F#5/C#E5/B  F#5/C#
   E     S  S  E     E     E     E     Q
|--------------------------------------------------|
|--------------------------------------------------|
|--------------------2-----------------------------|
|--4-----4--4--4-----2-----4-----2-----4\----------|
|--4-----4--4--4-----------4-----2-----4\----------|
|--------------------------------------------------|
|
|  S  S  S  S  S  S  S  S  S  S  S  S  S   S  S  S
|-17-14-16----14-------14-17-14-16----14--------14-|
|----------17----17-16-------------17-----17-16----|
|--------------------------------------------------|
|--------------------------------------------------|
|--------------------------------------------------|
|--------------------------------------------------|


  N.C.
   E     S  S  E     S  S  E    S S E S S
|-----------------------------------------|
|-----------------------------------------|
|-----------------------------------------|
|-----------------------------------------|
|--x-----x--x--x-----x--x--x----x-x-x-x-x-|
|--x-----x--x--x-----x--x--x----x-x-x-x-x-|
|
|                          ~~~~~
|  S  S  S  S  S  S  S  S  Q.         E
|-17-14-16----14--------------------------|
|----------17----17-16-14-17b19-----------|
|-----------------------------------------|
|-----------------------------------------|
|-----------------------------------------|
|-----------------------------------------|


  F#5/C#          A5/E F#5/CE5/B  F#5/C#
   E    S  S E     E    E    E    Q
|--------------------------------------------|
|--------------------------------------------|
|------------------2-------------------------|
|--4----4--4-4-----2----4----2----4\---------|
|--4----4--4-4----------4----2----4\---------|
|--------------------------------------------|
|
|  S S  S  S S  S  S S  S S  S  S S   S  S S
|-12-9-11----9-------9-12-9-11----9--------9-|
|---------12---12-11-----------12----12-11---|
|--------------------------------------------|
|--------------------------------------------|
|--------------------------------------------|
|--------------------------------------------|


  N.C.
   E    S  S E    S S   E   S S E S S
|-------------------------------------|
|-------------------------------------|
|-------------------------------------|
|-------------------------------------|
|--x----x--x-x----x-x---x---x-x-x-x-x-|
|--x----x--x-x----x-x---x---x-x-x-x-x-|
|
|  S S  S  S S  S S S   H
|-12-9-11----9------------------------|
|---------12---12-9-------------------|
|-------------------9-----------------|
|---------------------[11]\-----------|
|-------------------------------------|
|-------------------------------------|


  E5  F#5         F#5               E5  F#5         A5      E5
  Gtr I
              PM|                               PM|
  E   E   E   S S H                 E   E   E   S S Q       Q
|---------------------------------|-----------------------------------|
|---------------------------------|-----------------------------------|
|---------------------------------|-----------------------------------|
|---------------------------------|-----------------2-----------------|
|-2---4-----------4---------------|-2---4-----------0-------2---------|
|-0---2-------0-0-2---------------|-0---2-------0-0---------0---------|
|
| Gtr II
| S S S S S S S S S S S S S S S S   S S S S S S S S S S S S S S  S S
|-2h4p2-0-2-4-5-4-4h5p4-2-4-5-7-5-|-5h7p5-4-5-7-9-7-7h9p7-5-7-9-11-9--|
|---------------------------------|-----------------------------------|
|---------------------------------|-----------------------------------|
|---------------------------------|-----------------------------------|
|---------------------------------|-----------------------------------|
|---------------------------------|-----------------------------------|
|
| Gtr III
| S S S S S S S S S S S S S S S S   S S S S S S S S S S S S S S  S S
|---------------------------------|-----------------------------------|
|-0h2p0---0-2-4-0-2h4p2-0-2-4-5-2-|-4h5p4-2-4-5-7-5-5h7p5-4-5-7--9-7--|
|-------2-------------------------|-----------------------------------|
|---------------------------------|-----------------------------------|
|---------------------------------|-----------------------------------|
|---------------------------------|-----------------------------------|


  E5   F#5            F#5
                 PM|
  E    E   E     S  S  H
|--------------------------------------------|
|--------------------------------------------|
|--------------------------------------------|
|--------------------------------------------|
|-2----4---------------4---------------------|
|-0----2---------0--0--2---------------------|
|
| S  S S S S  S  S  S  S  S  S S  S  S  S  S
|-9h11p9-7-9-11-12-11-11h12p11-9-11-12-14-12-|
|--------------------------------------------|
|--------------------------------------------|
|--------------------------------------------|
|--------------------------------------------|
|--------------------------------------------|
|
| S  S S S S  S  S  S  S  S  S S  S  S  S  S
|--------------------------------------------|
|-7h=9p7-5-7--9-10--9--9h10p=9-7--9-10-12-10-|
|--------------------------------------------|
|--------------------------------------------|
|--------------------------------------------|
|--------------------------------------------|


  E5    F#5               B5    C5
                     PM|
   E     E     E     S  S  Q    Q
|------------------------------------|
|------------------------------------|
|------------------------------------|
|--------------------------4----5----|
|--2-----4-----------------2----3----|
|--0-----2-----------0--0------------|
|
|                          |---3---|
|  S  S  S  S  S  S  S  S  Q  Q    Q
|-12h14p12-11-12-14-16-14------------|
|-------------------------14-16---17-|
|------------------------------------|
|------------------------------------|
|------------------------------------|
|------------------------------------|
|
|                          |---3---|
|  S  S  S  S  S  S  S  S  Q  Q    Q
|------------------------------------|
|-10h12p10--9-10-12-14-10-10-12---13-|
|------------------------------------|
|------------------------------------|
|------------------------------------|
|------------------------------------|


  E5    F#5            F#5        E5  F#5       A5      E5
                   PM|                     PM|
   E     E   E     S S H           E  E E  S  S  Q      Q
|-------------------------------|--------------------------|
|-------------------------------|--------------------------|
|-------------------------------|--------------------------|
|-------------------------------|----------------2---------|
|--2-----4-------------4--------|--2--4----------0------2--|
|--0-----2---------0-0-2--------|--0--2----0--0---------0--|
|
|                           ~~~~                     ~~~~
|  E     E  +H             +Q      Q.      S  S  E   Q.
|-------------------------------|-17-----------------------|
|-17b19-17-(17)b19--------(17)--|---------------14-(14)----|
|-------------------------------|---------16p14----(14)----|
|-------------------------------|--------------------------|
|-------------------------------|--------------------------|
|-------------------------------|--------------------------|
|
|                           ~~~~
|  E     E  +H             +Q      W
|-------------------------------|--------------------------|
|-13b15-13-(13)b15--------(13)--|--------------------------|
|-------------------------------|--------------------------|
|-------------------------------|--------------------------|
|-------------------------------|--------------------------|
|-------------------------------|--------------------------|


  E5    F#5            F#5
                  PM|
   E     E  E     S  S  H
|--------------------------------------------|
|--------------------------------------------|
|--------------------------------------------|
|--------------------------------------------|
|--2-----4--------------4--------------------|
|--0-----2--------0--0--2--------------------|
|
|  E     E  S  S  S  S  S  S  S  S  S  S S S
|-------14-----------------------------------|
|--------------------------------------------|
|-16b18----16-14-13-13-14-13-11-11-13-11-9-8-|
|--------------------------------------------|
|--------------------------------------------|
|--------------------------------------------|
|
|  W
|--------------------------------------------|
|--------------------------------------------|
|--------------------------------------------|
|--------------------------------------------|
|--------------------------------------------|
|--------------------------------------------|


  E5   F#5            B5  C5     E5    F#5       F#5
                 PM|                         PM|
  E     E  E     S  S  Q   Q      E    E  E  S S  H
|------------------------------|------------------------------------|
|------------------------------|------------------------------------|
|------------------------------|------------------------------------|
|----------------------4---5---|------------------------------------|
|-2-----4--------------2---3---|--2----4----------4-----------------|
|-0-----2--------0--0----------|--0----2-----0-0--2-----------------|
|
|                      ~~                 ~~~           PM--------|
| S  S  E  S  S  S  S  Q   E E    E    E +Q      +E     S S S S S S
|------------------------------|------------------------------------|
|------------------------------|------------------------------------|
|-9-11-13-13-14-16-14-13--13s2-|-[4]b6-4-(4)-----(4)b6==4-4-4-4-4-4-|
|------------------------------|------------------------------------|
|------------------------------|------------------------------------|
|------------------------------|------------------------------------|


  E5  F#5             A5       E5
                  PM|
   E  E     E     S S  Q        Q
|-----------------------------------|
|-----------------------------------|
|-----------------------------------|
|----------------------2------------|
|--2--4----------------0--------2---|
|--0--2-----------0-0-----------0---|
|
|                               ~~~
|  |-----3-----|
|  Q     Q     Q       S   +E. +Q
|-----------------------------------|
|-----------------------------------|
|-[4]---[4]---[4]-----[4]r-(4)-(4)--|
|-----------------------------------|
|-----------------------------------|
|-----------------------------------|


  E5  F#5       F#5               E5  F#5       B5    C5
            PM|                             PM|
  E   E E   S S H                 E   E E   S S Q      Q
|-------------------------------|--------------------------|
|-------------------------------|--------------------------|
|-------------------------------|--------------------------|
|-------------------------------|---------------4------5---|
|-2---4---------4---------------|-2---4---------2------3---|
|-0---2-----0-0-2---------------|-0---2-----0-0------------|
|
|                                                      ~~~
| E   E S S E   S S S S S S S S   S S E S S S S S S E  Q
|-----2-------------------------|--------------------------|
|-------5p2---------------------|--------------------------|
|-4b6-------4---2-4p2---4p2-----|--------------------------|
|---------------------4-----4-2-|-4p2----------------------|
|-------------------------------|-----4-2-4p2---4p2--------|
|-------------------------------|-------------5-----5-[2]--|


  E5 F#5     F#5        E5 F#5     A5  E5
         PM|                   PM|
  E  E E S S H          E  E E S S Q   Q
|---------------------|----------------------|
|---------------------|----------------------|
|---------------------|----------------------|
|---------------------|------------2---------|
|-2--4-------4--------|-2--4-------0---2-----|
|-0--2---0-0-2--------|-0--2---0-0-----0-----|
|
| ~~         ~~         ~~         ~~
| Q.     S S Q.   S S   Q.     S S Q.    S S
|---------------------|----------------------|
|---------------------|----------------------|
|---------------------|----------------------|
|-4------2-4-6----4-6-|-7------6-7-9-----7-9-|
|---------------------|----------------------|
|---------------------|----------------------|


  E5 F#5           F#5
              PM|
   E E     E  S  S  H
|------------------------------------|
|------------------------------------|
|------------------------------------|
|------------------------------------|
|--2-4--------------4----------------|
|--0-2--------0--0--2----------------|
|
|  E S  S  E  S  S  E  S  S  E  S  S
|------------------------------------|
|------------------------------------|
|------------------------------------|
|-11-9-11-13-11-13-14-13-14-16-14-16-|
|------------------------------------|
|------------------------------------|


  E5 F#5            B5    C5
               PM|
   E  E     E  S  S  Q    Q
|------------------------------||
|------------------------------||
|------------------------------||
|--------------------4----5----||
|--2--4--------------2----3----||
|--0--2--------0--0------------||
|
|                    TP
|                    |---3---|
|  E  S  S  E  S  S  Q  Q    Q
|------------------------------||
|------------------------------||
|-13----13-14-13-14-13-14---16-||
|----16------------------------||
|------------------------------||
|------------------------------||


 Verse
  F#5                         F#5 N.C.          F#5
         PM        PM     PM|     PM|   PM  PM|
   E     E   E     E   E  E E E   E E E E E E E E
|-------------------------------|-----------------|
|-------------------------------|-----------------|
|-------------------------------|-----------------|
|-------------------------------|-----------------|
|--4---------4---------5------4-|-----4---5-----4-|
|--2-----2---------2------2-2-2-|-2-2---2---2-2-2-|
|
|                                 PM|   PM  PM|
|  E     E  +Q        +H          E E E E E E E E
|-------------------------------|-----------------|
|-------------------------------|-----------------|
|-16b18-16-(16)b18---(16)-------|-----------------|
|-------------------------------|-----------------|
|-------------------------------|-----4---5-----4-|
|-------------------------------|-2-2---2---2-2-2-|


  N.C.          F#5 N.C.          E5  N.C.          E5  N.C.          E5
  Gtrs I, II
  PM|   PM  PM|     PM|   PM  PM|     PM|   PM  PM|     PM|   PM  PM|
  E E E E E E E E   E E E E E E E E   E E E E E E E E   E E E E E E E E
|-----------------|-----------------|-----------------|------------------|
|-----------------|-----------------|-----------------|------------------|
|-----------------|-----------------|-----------------|------------------|
|-----------------|-----------------|---------2-------|---------2--------|
|-----4---5-----4-|-----4---5-----2-|-----2---------2-|-----2---------2--|
|-2-2---2---2-2-2-|-2-2---2---2-2-0-|-0-0---0---0-0-0-|-0-0---0---0-0-0--|


  N.C.          E5  N.C.          F#5 N.C.          F#5 N.C.          F#5
  PM|   PM  PM|     PM|   PM  PM|     PM|   PM  PM|     PM|   PM  PM|
  E E E E E E E E   E E E E E E E E   E E E E E E E E   E E E E E E E E
|-----------------|-----------------|-----------------|------------------|
|-----------------|-----------------|-----------------|------------------|
|-----------------|-----------------|-----------------|------------------|
|---------2-------|---------2-------|-----------------|------------------|
|-----2---------2-|-----2---------4-|-----4---5-----4-|-----4---5-----4--|
|-0-0---0---0-0-0-|-0-0---0---0-0-2-|-2-2---2---2-2-2-|-2-2---2---2-2-2--|


  N.C.          F#5 N.C.          E5  N.C.          E5  N.C.          E5
  PM|   PM  PM|     PM|   PM  PM|     PM|   PM  PM|     PM|   PM  PM|
  E E E E E E E E   E E E E E E E E   E E E E E E E E   E E E E E E E E
|-----------------|-----------------|-----------------|------------------|
|-----------------|-----------------|-----------------|------------------|
|-----------------|-----------------|-----------------|------------------|
|-----------------|-----------------|---------2-------|---------2--------|
|-----4---5-----4-|-----4---5-----2-|-----2---------2-|-----2---------2--|
|-2-2---2---2-2-2-|-2-2---2---2-2-0-|-0-0---0---0-0-0-|-0-0---0---0-0-0--|


                                      Chorus
  N.C.          E5  N.C.               E5F#5     F#5    E5F#5     A5 E5
  PM|   PM  PM|     PM|   PM  PM--|          PM|              PM|
  E E E E E E E E   E E E E E E E E    E E E S S H      E E E S S Q  Q
|-----------------|-----------------||----------------|------------------|
|-----------------|-----------------||----------------|------------------|
|-----------------|-----------------||----------------|------------------|
|---------2-------|---------2-------||----------------|-----------2------|
|-----2---------2-|-----2-----------||-2-4-------4----|-2-4-------0--2---|
|-0-0---0---0-0-0-|-0-0---0---0-0-0-||-0-2---0-0-2----|-0-2---0-0----0---|


  E5F#5     F#5    E5F#5     B5 C5   E5F#5     F#5    E5    F#5     A5     E5
        PM|              PM|               PM|                  PM|
  E E E S S H      E E E S S Q  Q    E E E S S H       E    E E S S   Q    Q
|----------------|-----------------|----------------|--------------------------|
|----------------|-----------------|----------------|--------------------------|
|----------------|-----------------|----------------|--------------------------|
|----------------|-----------4--5--|----------------|-----------------2--------|
|-2-4-------4----|-2-4-------2--3--|-2-4-------4----|--2----4---------0----2---|
|-0-2---0-0-2----|-0-2---0-0-------|-0-2---0-0-2----|--0----2---0-0--------0---|
|
| Gtr III
|                                                                     ~~~~~
| W                W                 W                 H             +H
|----------------|-----------------|----------------|--------------------------|
|----------------|-----------------|----------------|-17b19---------(17)\------|
|----------------|-----------------|----------------|--------------------------|
|----------------|-----------------|----------------|--------------------------|
|----------------|-----------------|----------------|--------------------------|
|----------------|-----------------|----------------|--------------------------|


                                      Breakdown
  E5F#5     F#5    E5F#5     B5 C5     F#5/C#  A5F#E5F#5/C#
        PM|              PM|
  E E E S S H      E E E S S Q  Q      E S S E E E E Q
|----------------|-----------------||--------------------|
|----------------|-----------------||o-------------------|
|----------------|-----------------||----------2---------|
|----------------|-----------4--5--||--4-4-4-4-2-4-2-4\--|
|-2-4-------4----|-2-4-------2--3--||o-4-4-4-4---4-2-4\--|
|-0-2---0-0-2----|-0-2---0-0-------||--------------------|


                             Outro
  N.C.                        F#5/C#  A5F#E5F#5/C#
  E S S E S S E S S E S S  4x E S S E E E E Q
|--------------------------||-------------------|
|-------------------------o||-------------------|
|--------------------------||---------2---------|
|--------------------------||-4-4-4-4-2-4-2-4\--|
|-x-x-x-x-x-x-x-x-x-x-x-x-o||-4-4-4-4---4-2-4\--|
|-x-x-x-x-x-x-x-x-x-x-x-x--||-------------------|


  F#5/C#  A5F#E5F#5/C#F#5/C#      A5F#E5F#5/C#F#5/C#     A5F#E5F#5/C#
  Gtrs I, II
  E S S E E E E Q       E   S S E E E E Q       E  S S E E E E   E  E
|-------------------|-----------------------|-------------------------*|
|-------------------|-----------------------|-------------------------*|
|---------2---------|-------------2---------|------------2------------*|
|-4-4-4-4-2-4-2-4\--|---4---4-4-4-2-4-2-4\--|---4--4-4-4-2-4-2---4----*|
|-4-4-4-4---4-2-4\--|---4---4-4-4---4-2-4\--|---4--4-4-4---4-2---4----*|
|-------------------|-----------------------|-------------------------*|
|
| Gtr III
|                       \7______________________________________________
| W                     W                      +H.              +E  E
|-------------------|-/14-------------------|-(14)-------------(14)---*|
|-------------------|-/14-------------------|-(14)-------------(14)---*|
|-------------------|-/14-------------------|-(14)-------------(14)---*|
|-------------------|-/14-------------------|-(14)-------------(14)---*|
|-------------------|-----------------------|-------------------------*|
|-------------------|-----------------------|-------------------------*|



Duration Legend
---------------
W - whole; H - half; Q - quarter; E - 8th; S - 16th; T - 32nd; X - 64th; a - acciaccatura
+ - note tied to previous; . - note dotted; .. - note double dotted
Uncapitalized letters represent notes that are staccato (1/2 duration)
Irregular groupings are notated above the duration line
Duration letters will always appear directly above the note/fret number it represents the
duration for.  Duration letters with no fret number below them represent rests.  Multi-
bar rests are notated in the form Wxn, where n is the number of bars to rest for.  Low
melody durations appear below the staff

Tablature Legend
----------------
 h   - hammer-on
 p   - pull-off
 b   - bend
 pb  - pre-bend
 r   - bend release (if no number after the r, then release immediately)
 /\  - slide into or out of (from/to "nowhere")
 s   - legato slide
 S   - shift slide
 - natural harmonic
[n]  - artificial harmonic
n(n) - tapped harmonic
 ~   - vibrato
 tr  - trill
 T   - tap
 TP  - trem. picking
 PM  - palm muting
\n/  - tremolo bar dip; n = amount to dip
 \n  - tremolo bar down
 n/  - tremolo bar up
/n\  - tremolo bar inverted dip
 =   - hold bend; also acts as connecting device for hammers/pulls
 <> - volume swell (louder/softer)
 x   - on rhythm slash represents muted slash
 o   - on rhythm slash represents single note slash

Misc Legend
-----------
 |  - bar
||  - double bar
||o - repeat start
o|| - repeat end
*|  - double bar (ending)
 :  - bar (freetime)
 $  - Segno
 &  - Coda
Tempo markers -  = BPM(8/16=s8/s16), where s8 = swing 8ths, s16 = swing 16ths

Related for Medusa tab