Song name
# A B C D E F G H I J K L M N O P Q R S T U V W X Y Z

Anthrax - Now Its Dark tab

Help us improve GuitareTab! Take a short survey!
#----------------------------------PLEASE NOTE---------------------------------#
#This file is the author's own work and represents their interpretation of the #
#song. You may only use this file for private study, scholarship, or research. #
#------------------------------------------------------------------------------#

NOW IT'S DARK
As recorded by Anthrax
(From the 1988 Album STATE OF EUPHORIA)

Transcribed by B. Johnson
	

Words and Music by Anthrax

Gtr I (E A D G B E) - 'Scott Ian'
Gtr II (E A D G B E) - 'Dan Spitz'
Gtr III (E A D G B E) - 'Ian - Spitz Scratch'
Gtr IV (E A D G B E) - 'Harm. Solo'

 Intro
  Fast Rock Q=150
 4/4
  Gtr I                                     Gtr III
   W           +W            +W              W
|-----------|-------------|-------------|--------------|
|-----------|-------------|-------------|--------------|
|-12--------|-(12)--------|-(12)--------|--------------|
|-12--------|-(12)--------|-(12)--------|---12\--------|
|-10--------|-(10)--------|-(10)--------|---12\--------|
|-----------|-------------|-------------|---10\--------|
|
| Gtr II
|                                            ~~~
|  W            W             W           a  W
|-----------|-------------|-------------|--------------|
|-----------|-------------|-------------|--------------|
|-----------|-------------|-------------|-5--7\--------|
|-----------|-------------|-------------|--------------|
|-----------|-------------|-------------|--------------|
|-----------|-------------|-------------|--------------|


  Gtr I
                          PM------------|
  W          +W           e e e e e e e e
|----------|------------|-----------------|
|----------|------------|-----------------|
|----------|------------|-----------------|
|----------|------------|-----------------|
|-5--------|-(5)--------|-5-5-5-5-5-5-5-5-|
|-3--------|-(3)--------|-3-3-3-3-3-3-3-3-|
|
| W           W           W
|----------|------------|-----------------|
|----------|------------|-----------------|
|----------|------------|-----------------|
|----------|------------|-----------------|
|----------|------------|-----------------|
|----------|------------|-----------------|


  PM------------|
  e e e e e e e e   E E E E E E E E
|-----------------|-----------------|
|-----------------|-----------------|
|-----------------|-----------------|
|-----------------|-----------------|
|-5-5-5-5-5-5-5-5-|---8-8---8-8---8-|
|-3-3-3-3-3-3-3-3-|---6-6---6-6---6-|


  E E E E E E E E   E E E E E E E E   E E E E E E E E
|-----------------|-----------------|-----------------|
|-----------------|-----------------|-----------------|
|-----------------|-----------------|-----------------|
|-----------------|-----------------|-----------------|
|---8-8---8-8---8-|---8-8---8-8---8-|---4---5---6---7-|
|---6-6---6-6---6-|---6-6---6-6---6-|---2---3---4---5-|


  E E E E E E E E   E E E E E E E E   E E E E E E E E   E E E E E E E E
|-----------------|-----------------|-----------------|-----------------||
|-----------------|-----------------|-----------------|-----------------||
|-----------------|-----------------|-----------------|-----------------||
|-----------------|-----------------|-----------------|-----------------||
|---8-8---8-8---8-|---8-8---8-8---8-|---8-8---8-8---8-|---4---5---6---7-||
|---6-6---6-6---6-|---6-6---6-6---6-|---6-6---6-6---6-|---2---3---4---5-||


    Gtrs I, II
  E E E E E E E E   E E E E E E E E   E E E E E E E E   E E E E E E E E
|-----------------|-----------------|-----------------|-----------------|
|-----------------|-----------------|-----------------|-----------------|
|-----------------|-----------------|-----------------|-----------------|
|-----------------|-----------------|-----------------|-----------------|
|---8-8---8-8---8-|---8-8---8-8---8-|---8-8---8-8---8-|---4---5---6---7-|
|---6-6---6-6---6-|---6-6---6-6---6-|---6-6---6-6---6-|---2---3---4---5-|


  E E E E E E E E   E E E E E E E E   E E E E E E E E   E E E E E E E E
|-----------------|-----------------|-----------------|-----------------|
|-----------------|-----------------|-----------------|-----------------|
|-----------------|-----------------|-----------------|-----------------|
|-----------------|-----------------|-----------------|-----------------|
|---8-8---8-8---8-|---8-8---8-8---8-|---8-8---8-8---8-|---4---5---6---7-|
|---6-6---6-6---6-|---6-6---6-6---6-|---6-6---6-6---6-|---2---3---4---5-|


  E E E E E E E E   E E E E E E E E   E E E E E E E E   E E E E E E E E
|-----------------|-----------------|-----------------|-----------------|
|-----------------|-----------------|-----------------|-----------------|
|-----------------|-----------------|-----------------|-----------------|
|-----------------|-----------------|-----------------|-----------------|
|---8-8---8-8---8-|---8-8---8-8---8-|---8-8---8-8---8-|---4---5---6---7-|
|---6-6---6-6---6-|---6-6---6-6---6-|---6-6---6-6---6-|---2---3---4---5-|


  E E E E E E E E   E E E E E E E E   E E E E E E E E   E E E E E E E E
|-----------------|-----------------|-----------------|-----------------|
|-----------------|-----------------|-----------------|-----------------|
|-----------------|-----------------|-----------------|-----------------|
|-----------------|-----------------|-----------------|-----------------|
|---8-8---8-8---8-|---8-8---8-8---8-|---8-8---8-8---8-|---4---5---6---7-|
|---6-6---6-6---6-|---6-6---6-6---6-|---6-6---6-6---6-|---2---3---4---5-|


  Tempo Change Q=180
  PM------------------------------|
  e e e e e e e e   e e e e e e e e
|-----------------|-----------------||
|-----------------|-----------------||
|-----------------|-----------------||
|-----------------|-----------------||
|-----------------|-----------------||
|-0-0-0-0-0-0-0-0-|-0-0-0-0-0-0-0-0-||


 Verse 1
        PM--|         PM--|       PM----|     PM----|
  E E E E E E E E   E E E E E E E E   E E E E E E E E
|-----------------|-----------------|-----------------|
|-----------------|-----------------|-----------------|
|-----------------|-----------------|-----------------|
|-4-5-6-------5-6-|-7-------4-5-6---|-----7-9---------|
|-2-3-4-------3-4-|-5-------2-3-4---|-----5-7---------|
|-------0-0-0-----|---0-0-0-------0-|-0-0-----0-0-0-0-|


                                                        2/4
        PM--|         PM--|       PM----|     PM----|
  E E E E E E E E   E E E E E E E E   E E E E E E E E    E Q.
|-----------------|-----------------|-----------------||---------|
|-----------------|-----------------|-----------------||---------|
|-----------------|-----------------|-----------------||-6-4-----|
|-4-5-6-------5-6-|-7-------4-5-6---|-----7-9---------||-7-5-----|
|-2-3-4-------3-4-|-5-------2-3-4---|-----5-7---------||---------|
|-------0-0-0-----|---0-0-0-------0-|-0-0-----0-0-0-0-||---------|


 Verse 2
  $
 4/4
        PM--|         PM--|       PM----|     PM----|
  E E E E E E E E   E E E E E E E E   E E E E E E E E
|-----------------|-----------------|-----------------|
|-----------------|-----------------|-----------------|
|-----------------|-----------------|-----------------|
|-4-5-6-------5-6-|-7-------4-5-6---|-----7-9---------|
|-2-3-4-------3-4-|-5-------2-3-4---|-----5-7---------|
|-------0-0-0-----|---0-0-0-------0-|-0-0-----0-0-0-0-|


                                                        2/4
        PM--|         PM--|       PM----|     PM----|
  E E E E E E E E   E E E E E E E E   E E E E E E E E    E Q.
|-----------------|-----------------|-----------------||---------|
|-----------------|-----------------|-----------------||---------|
|-----------------|-----------------|-----------------||-6-4-----|
|-4-5-6-------5-6-|-7-------4-5-6---|-----7-9---------||-7-5-----|
|-2-3-4-------3-4-|-5-------2-3-4---|-----5-7---------||---------|
|-------0-0-0-----|---0-0-0-------0-|-0-0-----0-0-0-0-||---------|


 Verse 3
  $$
 4/4
        PM--|         PM--|       PM----|     PM----|
  E E E E E E E E   E E E E E E E E   E E E E E E E E
|-----------------|-----------------|-----------------|
|-----------------|-----------------|-----------------|
|-----------------|-----------------|-----------------|
|-4-5-6-------5-6-|-7-------4-5-6---|-----7-9---------|
|-2-3-4-------3-4-|-5-------2-3-4---|-----5-7---------|
|-------0-0-0-----|---0-0-0-------0-|-0-0-----0-0-0-0-|


                                                        2/4
        PM--|         PM--|       PM----|     PM----|
  E E E E E E E E   E E E E E E E E   E E E E E E E E    E Q.
|-----------------|-----------------|-----------------||---------|
|-----------------|-----------------|-----------------||---------|
|-----------------|-----------------|-----------------||-6-4-----|
|-4-5-6-------5-6-|-7-------4-5-6---|-----7-9---------||-7-5-----|
|-2-3-4-------3-4-|-5-------2-3-4---|-----5-7---------||---------|
|-------0-0-0-----|---0-0-0-------0-|-0-0-----0-0-0-0-||---------|


 4/4
        PM--|         PM--|       PM----|     PM----|
  E E E E E E E E   E E E E E E E E   E E E E E E E E
|-----------------|-----------------|-----------------|
|-----------------|-----------------|-----------------|
|-----------------|-----------------|-----------------|
|-4-5-6-------5-6-|-7-------4-5-6---|-----7-9---------|
|-2-3-4-------3-4-|-5-------2-3-4---|-----5-7---------|
|-------0-0-0-----|---0-0-0-------0-|-0-0-----0-0-0-0-|


        PM--|         PM--|       PM----|     PM----|
  E E E E E E E E   E E E E E E E E   E E E E E E E E   E Q.   +H
|-----------------|-----------------|-----------------|---------------||
|-----------------|-----------------|-----------------|---------------||
|-----------------|-----------------|-----------------|-6-4----(4)----||
|-4-5-6-------5-6-|-7-------4-5-6---|-----7-9---------|-7-5----(5)----||
|-2-3-4-------3-4-|-5-------2-3-4---|-----5-7---------|---------------||
|-------0-0-0-----|---0-0-0-------0-|-0-0-----0-0-0-0-|---------------||


  Q   Q  H      W
|-------------|------||
|-------------|------||
|-------------|------||
|-9\----------|------||
|-7\----------|------||
|-------------|------||


   Chorus
    Q  E E E E E E   Q  E Q.   Q    E E E E Q  Q    Q  E E Q  E E   3x
||-----------------|--------------|---------------|-----------------||
||o----------------|--------------|---------------|----------------o||
||-----------------|--------------|---------------|-----------------||
||--9------4-7-----|-2------------|-9-9---4-7-----|-----------------||
||o-7--x-x-2-5-x-x-|-0----2----2--|-7-7---2-5-----|-2------2-------o||
||-----------------|------0----0--|---------------|-0--x-x-0--x-x---||


  Q  E E E E E E   Q  E Q.   Q    E E E E Q  Q    Q  E E e e e E
|----------------|--------------|---------------|----------------||
|----------------|--------------|---------------|----------------||
|----------------|--------------|---------------|----------------||
|-9------4-7-----|-2------------|-9-9---4-7-----|----------------||
|-7--x-x-2-5-x-x-|-0----2----2--|-7-7---2-5-----|-2------------8-||
|----------------|------0----0--|---------------|-0--x-x-0-0-0-6-||


      PM----|     PM----------------|
  +E  E E E E E E E   +E  E E E E E E E
|-------------------|-------------------|
|-------------------|-------------------|
|-------------------|-------------------|
|-------------------|-------------------|
|-(8)-8-8-8-8-7-5---|-----------------8-|
|-(6)-6-6-6-6-5-3-0-|-(0)-0-0-0-0-0-0-6-|


      PM----|     PM----------------|
  +E  E E E E E E E   +E  E E E E E E E
|-------------------|-------------------|
|-------------------|-------------------|
|-------------------|-------------------|
|-------------------|-------------------|
|-(8)-8-8-8-8-7-5---|-----------------8-|
|-(6)-6-6-6-6-5-3-0-|-(0)-0-0-0-0-0-0-6-|


      PM----|     PM----------------|
  +E  E E E E E E E   +E  E E E E E E E
|-------------------|-------------------|
|-------------------|-------------------|
|-------------------|-------------------|
|-------------------|-------------------|
|-(8)-8-8-8-8-7-5---|-----------------8-|
|-(6)-6-6-6-6-5-3-0-|-(0)-0-0-0-0-0-0-6-|


        To Dbl. Coda
      PM----|     PM--------------|
  +E  E E E E E E E   +E  E E E E E E E
|-------------------|-------------------||
|-------------------|-------------------||
|-------------------|-------------------||
|-------------------|---------------9---||
|-(8)-8-8-8-8-7-5---|---------------7---||
|-(6)-6-6-6-6-5-3-0-|-(0)-0-0-0-0-0-----||


     To Coda                                        D.S. al Coda
                    PM----|     PM
  H    Q  E E   +E  E E E E E E E   +Q   E E E E E E   Q  Q  Q  Q
|-------------|-------------------|------------------|-------------||
|-------------|-------------------|------------------|-------------||
|-------------|-------------------|------------------|-------------||
|-------------|-------------------|------------------|-------------||
|-----------8-|-(8)-8-8-8-8-7-5---|------8-7---8-7---|-8--8--8--8--||
|-----------6-|-(6)-6-6-6-6-5-3-0-|-(0)--6-5---6-5---|-6--6--6--6--||


                      Interlude
                       Tempo Change Q=150
  &
  Gtr I
      PM----|
  +E  E E E E E E E    +W
|-------------------||------------------|
|-------------------||------------------|
|-------------------||------------------|
|-------------------||------------------|
|-(8)-8-8-8-8-7-5-7-||-(7)--------------|
|-(6)-6-6-6-6-5-3-5-||-(5)--------------|
|
| Gtr II
|     PM----|
| +E  E E E E E E E    +H.      S S S S
|-------------------||------------------|
|-------------------||------------------|
|-------------------||------------------|
|-------------------||----------7p5-7p5-|
|-(8)-8-8-8-8-7-5-7-||-(7)--------------|
|-(6)-6-6-6-6-5-3-5-||-(5)--------------|


  +W                      +W
|-----------------------|-----------------------|
|-----------------------|-----------------------|
|-----------------------|-----------------------|
|-----------------------|-----------------------|
|-(7)-------------------|-(7)-------------------|
|-(5)-------------------|-(5)-------------------|
|
|     PM------|               PM------|
|  E  E E E E E S S S S    E  E E E E E S S S S
|-----------------------|-----------------------|
|-----------------------|-----------------------|
|-----------------------|-----------------------|
|--7------------7p5-7p5-|--7------------7p5-7p5-|
|-----------------------|-----------------------|
|-----6-6-6-6-6---------|-----6-6-6-6-6---------|


  +W                      +W
|-----------------------|-----------------------|
|-----------------------|-----------------------|
|-----------------------|-----------------------|
|-----------------------|-----------------------|
|-(7)-------------------|-(7)-------------------|
|-(5)-------------------|-(5)-------------------|
|
|     PM------|               PM------|
|  E  E E E E E S S S S    E  E E E E E S S S S
|-----------------------|-----------------------|
|-----------------------|-----------------------|
|-----------------------|-----------------------|
|--7------------7p5-7p5-|--7------------7p5-7p5-|
|-----------------------|-----------------------|
|-----6-6-6-6-6---------|-----6-6-6-6-6---------|


  W                     W
|---------------------|----------------------|
|---------------------|----------------------|
|---------------------|----------------------|
|---------------------|----------------------|
|---------------------|----------------------|
|---------------------|----------------------|
|
| Gtrs I, II
|   PM------|             PM------|
| E E E E E E S S S S   E E E E E E S S S S
|---------------------|----------------------|
|---------------------|----------------------|
|---------------------|----------------------|
|-7-----------7p5-7p5-|-7-----------7p5-7p5--|
|---------------------|----------------------|
|---6-6-6-6-6---------|---6-6-6-6-6----------|


  Gtrs I, II
    PM------|             PM------|
  E E E E E E S S S S   E E E E E E Q    Q.   E +H       Q.   Q.   S S S S
|---------------------|----------------|---------------|-------------------||
|---------------------|----------------|---------------|-------------------||
|---------------------|----------------|---------------|-------------------||
|-7-----------7p5-7p5-|-7--------------|---------------|-----------7p5-7p5-||
|---------------------|----------------|-9----8-(8)----|-9----8------------||
|---6-6-6-6-6---------|---6-6-6-6-6----|-7----6-(6)----|-7----6------------||


    PM------|             PM------|
  E E E E E E S S S S   E E E E E E S S S S
|---------------------|---------------------|
|---------------------|---------------------|
|---------------------|---------------------|
|-7-----------7p5-7p5-|-7-----------7p5-7p5-|
|---------------------|---------------------|
|---6-6-6-6-6---------|---6-6-6-6-6---------|


    PM------|             PM------|
  E E E E E E S S S S   E E E E E E Q
|---------------------|----------------|
|---------------------|----------------|
|---------------------|----------------|
|-7-----------7p5-7p5-|-7--------------|
|---------------------|----------------|
|---6-6-6-6-6---------|---6-6-6-6-6----|


                                        PM------|
  Q.   E +H       Q.   Q.   S S S S   E E E E E E S S S S
|---------------|-------------------|---------------------|
|---------------|-------------------|---------------------|
|---------------|-------------------|---------------------|
|---------------|-----------7p5-7p5-|-7-----------7p5-7p5-|
|-9----8-(8)----|-9----8------------|---------------------|
|-7----6-(6)----|-7----6------------|---6-6-6-6-6---------|
|
| W               W                   W
|---------------|-------------------|---------------------|
|---------------|-------------------|---------------------|
|---------------|-------------------|---------------------|
|---------------|-------------------|---------------------|
|---------------|-------------------|---------------------|
|---------------|-------------------|---------------------|


    PM------|             PM------|             PM------------|
  E E E E E E S S S S   E E E E E E S S S S   E E E E E E E   E
|---------------------|---------------------|----------------------||
|---------------------|---------------------|----------------------||
|---------------------|---------------------|----------------------||
|-7-----------7p5-7p5-|-7-----------7p5-7p5-|-7--------------------||
|---------------------|---------------------|----------------------||
|---6-6-6-6-6---------|---6-6-6-6-6---------|---6-6-6-6-6-6---6----||
|
|                                                       Gtr II
| W                     W                     H       Q   Q
|---------------------|---------------------|----------------------||
|---------------------|---------------------|----------------------||
|---------------------|---------------------|----------------------||
|---------------------|---------------------|----------------------||
|---------------------|---------------------|-------------0b2r=====||
|---------------------|---------------------|----------------------||


 Guitar Solo
  Gtr I
         PM     PM             PM|   PM
  E  E E E  E E E E    E  E  E E E E E E
|-------------------|--------------------|
|-------------------|--------------------|
|-------------------|--------------------|
|-------------------|--------------------|
|-7--7-7----7-----7-|-----7--7-----7---7-|
|-5--5-5-0--5---0-5-|-----5--5-0-0-5-0-5-|
|
| Gtr II
| ~~~~~~~~~~~~~~~~~~~~~~~~~~~        ~
| Q.     Q.     Q     +E  Q.     E E Q
|-------------------|--------------------|
|-------------------|--------------------|
|-------------------|--------------------|
|-------------------|------------5---7---|
|--------3------5---|-(5)-7--------7-----|
|-5-----------------|--------------------|


        PM    PM              PM    PM  PM
  E E E E E E E E    E  E E   E  E  E E E
|-----------------|------------------------|
|-----------------|------------------------|
|-----------------|------------------------|
|-----------------|------------------------|
|---7-7---7-----7-|-----7-7------7----7----|
|---5-5-0-5---0-5-|-----5-5---0--5--0-5-0--|
|
|                             ~~~~~~
| E E E E E E E E   +Q    S S E +E  E E E
|-----------------|------------------------|
|-------8-8-8-6-5-|-(5)--------------------|
|-----5-9-9-9-5-5-|-(5)--------------------|
|---7-------------|-------7p5-7-(7)-7-7-7--|
|-----------------|------------------------|
|-----------------|------------------------|


                                PM        PM                    PM            PM
   Q.    E  +H        E    E  E E   E  E  E E    E     E  E     E     E  E    E E
|------------------|--------------------------|-----------------------------------|
|------------------|--------------------------|-----------------------------------|
|------------------|--------------------------|-----------------------------------|
|------------------|--------------------------|-----------------------------------|
|--9-----8--(8)----|-------7--7-----7-------7-|--------7--7-----------7---------7-|
|--7-----6--(6)----|-------5--5-0---5-----0-5-|--------5--5-----0-----5-------0-5-|
|
|                             ~~~~~~~~~~~~~~
|  Q.    E  +H        Q       Q    +Q     Q      S  S  E  S  S  S  S  E  Q.
|------------------|--------------------------|----------------------20-20b22-----|
|-12----11-(11)----|-20b22---20---(20)--------|-17h20-17-17-----------------------|
|-14----13-(13)----|---------------------19---|-------------19-17-----------------|
|------------------|--------------------------|-------------------19--------------|
|------------------|--------------------------|-----------------------------------|
|------------------|--------------------------|-----------------------------------|
|
|  W                  W                          W
|------------------|--------------------------|-----------------------------------|
|------------------|--------------------------|-----------------------------------|
|------------------|--------------------------|-----------------------------------|
|------------------|--------------------------|-----------------------------------|
|------------------|--------------------------|-----------------------------------|
|------------------|--------------------------|-----------------------------------|


                        PM              PM
   E    E       E       E  E    E       E       E
|---------------------------------------------------|
|---------------------------------------------------|
|---------------------------------------------------|
|---------------------------------------------------|
|-------7-------7----------7--------------------7---|
|-------5-------5-------0--5------------0-------5---|
|
|  |-------3-------|       |-------3-------|
|  Q       Q       Q       Q       Q       Q
|-20b22---20b22---20b22---20b22---20b22---20b22-----|
|---------------------------------------------------|
|---------------------------------------------------|
|---------------------------------------------------|
|---------------------------------------------------|
|---------------------------------------------------|
|
| Gtr IV
|  |-------3-------|       |-------3-------|
|  Q       Q       Q       Q       Q       Q
|---------------------------------------------------|
|---------20b22---20b22---20b22---20b22---20b22-----|
|---------------------------------------------------|
|---------------------------------------------------|
|---------------------------------------------------|
|---------------------------------------------------|


             PM          PM
   E    E E  E      E  E E E    Q.    E  +H
|----------------------------|------------------|
|----------------------------|------------------|
|----------------------------|------------------|
|----------------------------|------------------|
|-------7-7---------7------7-|--9-----8--(8)----|
|-------5-5--0------5----0-5-|--7-----6--(6)----|
|
|                   ~~~~
|  Q.        E     +H           Q.    E  +H
|-22b24r====22b24-(22)-------|------------------|
|----------------------------|--7-----6--(6)----|
|----------------------------|--9-----8--(8)----|
|----------------------------|------------------|
|----------------------------|------------------|
|----------------------------|------------------|
|
|                   ~~~~
|  Q.        E     +H           Q.    E  +H
|----------------------------|------------------|
|-22b24r====22b24-(22)-------|-12----11-(11)----|
|----------------------------|-14----13-(13)----|
|----------------------------|------------------|
|----------------------------|------------------|
|----------------------------|------------------|


              PM          PM                    PM          PM
  E   E   E   E   E   E   E   E     E   E   E   E   E   E   E   E
|---------------------------------|---------------------------------|
|---------------------------------|---------------------------------|
|---------------------------------|---------------------------------|
|---------------------------------|---------------------------------|
|-----7---7-------7-----------7---|-----7---7-------7-----------7---|
|-----5---5---0---5-------0---5---|-----5---5---0---5-------0---5---|
|
| S S S S S S S S S S S S S S S S   S S S S S S S S S S S S S S S S
|---------------------------------|---------------------------------|
|---------------------------------|---------------------------------|
|---------------------------------|---------------2-----2-4---2-4-5-|
|-----------------------2-----2-4-|---2-4-5-2-4-5---4-5-----5-------|
|-----2-3---2-3-5-2-3-5---3-5-----|-5-------------------------------|
|-3-5-----5-----------------------|---------------------------------|


              PM          PM                    PM            PM
  E   E   E   E   E   E   E   E     E   E   E   E   E    E    E     E
|---------------------------------|--------------------------------------|
|---------------------------------|--------------------------------------|
|---------------------------------|--------------------------------------|
|---------------------------------|--------------------------------------|
|-----7---7-------7-----------7---|-----7---7-------7---------------7----|
|-----5---5---0---5-------0---5---|-----5---5---0---5---------0-----5----|
|
| S S S S S S S S S S S S S S S S   S S S S S S S S S  S S S  S  S  S  S
|---------------------------------|-------5-----5-7-7-10-7-7-10-13-10-10-|
|---------------5-----5-7---5-7-8-|-5-7-8---7-8--------------------------|
|---4-5-7-4-5-7---5-7-----7-------|--------------------------------------|
|-7-------------------------------|--------------------------------------|
|---------------------------------|--------------------------------------|
|---------------------------------|--------------------------------------|


                                 PM        PM
   Q.    E  +H       E E    E    E  E E    E    E
|------------------|------------------------------|
|------------------|------------------------------|
|------------------|------------------------------|
|------------------|------------------------------|
|--9-----8--(8)----|---7----7-------7-----------7-|
|--7-----6--(6)----|---5----5----0--5------0----5-|
|
|                    |----3----|    |----3----|
|  Q.    E  +H       Q    Q    Q    Q    Q    Q
|------------------|--------------------14--------|
|-14----13-(13)----|-----14---15---17--------17---|
|-17----16-(16)----|------------------------------|
|------------------|------------------------------|
|------------------|------------------------------|
|------------------|------------------------------|
|
|                    Gtr IV
|                    |----3----|    |----3----|
|  W                 Q    Q    Q    Q    Q    Q
|------------------|------------------------------|
|------------------|---------------12---14---12---|
|------------------|-----13---14------------------|
|------------------|------------------------------|
|------------------|------------------------------|
|------------------|------------------------------|


               PM        PM                    PM        PM
   E E    E    E  E E    E    E    E E    E    E  E E    E    E
|-------------------------------|-------------------------------|
|-------------------------------|-------------------------------|
|-------------------------------|-------------------------------|
|-------------------------------|-------------------------------|
|----7----7-------7-----------7-|----7----7-------7-----------7-|
|----5----5----0--5------0----5-|----5----5----0--5------0----5-|
|
|  |----3----|    |----3----|      |----3----|    |----3----|
|  Q    Q    Q    Q    Q    Q      Q    Q    Q    Q    Q    Q
|---------------------14--------|-14---15---16---17---18---19---|
|-15---14---15---17--------17---|-------------------------------|
|-------------------------------|-------------------------------|
|-------------------------------|-------------------------------|
|-------------------------------|-------------------------------|
|-------------------------------|-------------------------------|
|
|  |----3----|    |----3----|      |----3----|    |----3----|
|  Q    Q    Q    Q    Q    Q      Q    Q    Q    Q    Q    Q
|-------------------------------|-------------------------------|
|----------------12---14---12---|-14---15---16---17---18---19---|
|-14---13---14------------------|-------------------------------|
|-------------------------------|-------------------------------|
|-------------------------------|-------------------------------|
|-------------------------------|-------------------------------|


               PM              PM
   E E    E    E  E    E       E       E    E    E E E  E    E E E
|----------------------------------------|-------------------------|
|----------------------------------------|-------------------------|
|----------------------------------------|-------------------------|
|----------------------------------------|-------------------------|
|----7----7-------7------------7---------|-------8-8----8----8---8-|
|----5----5----0--5------------5---------|-------6-6----6----6---6-|
|
|  |----3----|    |-------3-------|
|  Q    Q    Q    Q       Q       Q         H           H
|-20---21---22---22b24---22b24---22b24---|-22b24r======22b24r======|
|----------------------------------------|-------------------------|
|----------------------------------------|-------------------------|
|----------------------------------------|-------------------------|
|----------------------------------------|-------------------------|
|----------------------------------------|-------------------------|
|
|  |----3----|    |-------3-------|
|  Q    Q    Q    Q       Q       Q         H           H
|----------------------------------------|-------------------------|
|-20---21---22---22b24---22b24---22b24---|-22b24r======22b24r======|
|----------------------------------------|-------------------------|
|----------------------------------------|-------------------------|
|----------------------------------------|-------------------------|
|----------------------------------------|-------------------------|


   E     E E E E E E E     E  E E E E E E E
|----------------------|--------------------||
|----------------------|--------------------||
|----------------------|--------------------||
|----------------------|--------------------||
|--------8-8---8-8---8-|------8-8---8-8---8-||
|--------6-6---6-6---6-|------6-6---6-6---6-||
|
|  ~~~~~~~~~~~~~~~~~~~~~~~~~~~
|  W                      +W
|-22b24================|=(22)---------------||
|----------------------|--------------------||
|----------------------|--------------------||
|----------------------|--------------------||
|----------------------|--------------------||
|----------------------|--------------------||
|
|  ~~~~~~~~~~~~~~~~~~~~~~~~~~~
|  W                      +W
|----------------------|--------------------||
|-22b24================|=(22)---------------||
|----------------------|--------------------||
|----------------------|--------------------||
|----------------------|--------------------||
|----------------------|--------------------||


 Bridge
    E  E E E E E E E     E  E E E E E E E
|--------------------|--------------------|
|--------------------|--------------------|
|--------------------|--------------------|
|--------------------|--------------------|
|------4---5---6---7-|------8-8---8-8---8-|
|------2---3---4---5-|------6-6---6-6---6-|
|
|  +W                   +W
|-(22)r==============|=(22)---------------|
|--------------------|--------------------|
|--------------------|--------------------|
|--------------------|--------------------|
|--------------------|--------------------|
|--------------------|--------------------|
|
|  +W                   +W
|--------------------|--------------------|
|-(22)r==============|=(22)---------------|
|--------------------|--------------------|
|--------------------|--------------------|
|--------------------|--------------------|
|--------------------|--------------------|


  Gtrs I, II
  E E E E E E E E   E E E E E E E E   E E E E E E E E
|-----------------|-----------------|-----------------|
|-----------------|-----------------|-----------------|
|-----------------|-----------------|-----------------|
|-----------------|-----------------|-----------------|
|---8-8---8-8---8-|---8-8---8-8---8-|---4---5---6---7-|
|---6-6---6-6---6-|---6-6---6-6---6-|---2---3---4---5-|
|
| W                 W                 W
|-----------------|-----------------|-----------------|
|-----------------|-----------------|-----------------|
|-----------------|-----------------|-----------------|
|-----------------|-----------------|-----------------|
|-----------------|-----------------|-----------------|
|-----------------|-----------------|-----------------|
|
| W                 W                 W
|-----------------|-----------------|-----------------|
|-----------------|-----------------|-----------------|
|-----------------|-----------------|-----------------|
|-----------------|-----------------|-----------------|
|-----------------|-----------------|-----------------|
|-----------------|-----------------|-----------------|


    E E E E E E E E   E E E E E E E E   E E E E E E E E   E E E E E E E E
||------------------|-----------------|-----------------|-------------------||
||o-----------------|-----------------|-----------------|------------------o||
||------------------|-----------------|-----------------|-------------------||
||------------------|-----------------|-----------------|-------------------||
||o---8-8---8-8---8-|---8-8---8-8---8-|---8-8---8-8---8-|---4---5---6---7--o||
||----6-6---6-6---6-|---6-6---6-6---6-|---6-6---6-6---6-|---2---3---4---5---||


  Tempo Change Q=180
               D.S.S. al Dbl. Coda
  PM------------------------------|
  e e e e e e e e   e e e e e e e e
|-----------------|-----------------||
|-----------------|-----------------||
|-----------------|-----------------||
|-----------------|-----------------||
|-----------------|-----------------||
|-0-0-0-0-0-0-0-0-|-0-0-0-0-0-0-0-0-||


 Outro
  &&
  PM----------|         PM----|     PM                    PM----|     PM
  E E E E E E E E   +E  E E E E E E E   H    Q  E E   +E  E E E E E E E
|-----------------|-------------------|-------------|-------------------|
|-----------------|-------------------|-------------|-------------------|
|-----------------|-------------------|-------------|-------------------|
|-----------------|-------------------|-------------|-------------------|
|---------------8-|-(8)-8-8-8-8-7-5---|-----------8-|-(8)-8-8-8-8-7-5---|
|-0-0-0-0-0-0-0-6-|-(6)-6-6-6-6-5-3-0-|-----------6-|-(6)-6-6-6-6-5-3-0-|


                    PM----|     PM
  H    Q  E E   +E  E E E E E E E   H    Q  E E
|-------------|-------------------|-------------|
|-------------|-------------------|-------------|
|-------------|-------------------|-------------|
|-------------|-------------------|-------------|
|-----------8-|-(8)-8-8-8-8-7-5---|-----------8-|
|-----------6-|-(6)-6-6-6-6-5-3-0-|-----------6-|


      PM----|     PM
  +E  E E E E E E E   E E E E H
|-------------------|--------------*|
|-------------------|--------------*|
|-------------------|--------------*|
|-------------------|---9----------*|
|-(8)-8-8-8-8-7-5---|---7---2------*|
|-(6)-6-6-6-6-5-3-0-|-------0------*|



Duration Legend
---------------
W - whole; H - half; Q - quarter; E - 8th; S - 16th; T - 32nd; X - 64th; a - acciaccatura
+ - note tied to previous; . - note dotted; .. - note double dotted
Uncapitalized letters represent notes that are staccato (1/2 duration)
Irregular groupings are notated above the duration line
Duration letters will always appear directly above the note/fret number it represents the
duration for.  Duration letters with no fret number below them represent rests.  Multi-
bar rests are notated in the form Wxn, where n is the number of bars to rest for.  Low
melody durations appear below the staff

Tablature Legend
----------------
 h   - hammer-on
 p   - pull-off
 b   - bend
 pb  - pre-bend
 r   - bend release (if no number after the r, then release immediately)
 /\  - slide into or out of (from/to "nowhere")
 s   - legato slide
 S   - shift slide
 - natural harmonic
[n]  - artificial harmonic
n(n) - tapped harmonic
 ~   - vibrato
 tr  - trill
 T   - tap
 TP  - trem. picking
 PM  - palm muting
\n/  - tremolo bar dip; n = amount to dip
 \n  - tremolo bar down
 n/  - tremolo bar up
/n\  - tremolo bar inverted dip
 =   - hold bend; also acts as connecting device for hammers/pulls
 <> - volume swell (louder/softer)
 x   - on rhythm slash represents muted slash
 o   - on rhythm slash represents single note slash

Misc Legend
-----------
 |  - bar
||  - double bar
||o - repeat start
o|| - repeat end
*|  - double bar (ending)
 :  - bar (freetime)
 $  - Segno
 &  - Coda
Tempo markers -  = BPM(8/16=s8/s16), where s8 = swing 8ths, s16 = swing 16ths

Related for Now Its Dark tab