Song name
# A B C D E F G H I J K L M N O P Q R S T U V W X Y Z

Anthrax - Lone Justice tab

Help us improve GuitareTab! Take a short survey!
#----------------------------------PLEASE NOTE---------------------------------#
#This file is the author's own work and represents their interpretation of the #
#song. You may only use this file for private study, scholarship, or research. #
#------------------------------------------------------------------------------#

LONE JUSTICE
As recorded by ANTHRAX
(From the 1985 Album SPREADING THE DISEASE)

Transcribed by Russ Elton(webmaster@abysslord.com)
	

Words and Music by ANTHRAX
Arranged by Mike Brown (warlockmb2000@yahoo.com)

Gtr I (E A D G B E) - 'Untitled'

  Fast Rock Q=186
 4/4
  Gtr I
               |-3-| |-3-| |-3-| |-3-| |-3-| |-3-| |-3-|
  Wx7          S S S S S S S S S S S S S S S S S S S S S E
|------------|---------------------------------------------|
|------------|---------------------------------------------|
|------------|---------------------------------------------|
|------------|---------------------------------------------|
|------------|-x-x-x-x-x-x-x-x-x-x-x-x-x-x-x-x-x-x-x-x-x-7-|
|------------|-x-x-x-x-x-x-x-x-x-x-x-x-x-x-x-x-x-x-x-x-x-0-|


                       1.,2.,3.
        PM--------|         PM--------|
    +E  E E E E E E E   +E  E E E E E E E
||--------------------|--------------------||
||o-------------------|-------------------o||
||--------------------|--------------------||
||--------------------|--------------------||
||o-(7)-------------7-|-(7)-------------7-o||
||--(0)-0-3-0-2-0-0-0-|-(0)-0-3-0-2-3-5-0--||


  4.
      PM----------|     PM--|
  +E  E E E E E E E   E E E E E E E E
|-------------------|------------------|
|-------------------|------------------|
|-------------------|------------------|
|-------------------|-9-------9-9-9-9--|
|-(7)---------------|-7-7-7-7-7-7-7-7--|
|-(0)-0-3-0-2-3-5-0-|------------------|


    PM--|             PM--|             PM--|             PM--|
  E E E E E E E E   E E E E E E E E   E E E E E E E E   E E E E E E E E
|-----------------|-----------------|-----------------|-----------------|
|-----------------|-----------------|-----------------|-----------------|
|-----------------|-----------------|-----------------|-----------------|
|-8-------8-8-8-8-|-5-------5-5-5-5-|-4-------4-4-4-4-|-2-------2-2-2-2-|
|-6-6-6-6-6-6-6-6-|-3-3-3-3-3-3-3-3-|-2-2-2-2-2-2-2-2-|-0-0-0-0-0-0-0-0-|
|-----------------|-----------------|-----------------|-----------------|


                                  \5
    PM--------|                                      PM----|
  E E E E E E E E   +W           +H.     E E     +E  E E E E E Q
|-----------------|------------|-------------||--------------------|
|-----------------|------------|-------------||o-------------------|
|-----------------|------------|-------------||--------------5-7---|
|-----------------|------------|-----------7-||--(7)---------5-7---|
|-5-------------2-|-(2)--------|-----------0-||o-(0)-0-0-0-0-------|
|-3-3-3-3-2-2-2-0-|-(0)--------|-(0)---------||--------------------|


                             PM----|                       PM
  +E  E E E +Q   E E  7x +E  E E E E E Q    +E  E E E +Q   E E   +H.      E E
|---------------------||------------------|--------------------|--------------|
|--------------------o||------------------|--------------------|--------------|
|-(7)-0-5-------------||-------------5-7--|-(7)-0-5------------|--------------|
|-(7)-0-5-5-(5)--0-7--||-(7)---------5-7--|-(7)-0-5-5-(5)------|------------2-|
|---------5-(5)--0-0-o||-(0)-0-0-0-0------|---------5-(5)----7-|-(7)--------0-|
|---------------------||------------------|----------------0-0-|-(0)----------|


  +H.      E E   +H.      E E   +H.      E E   +H.      E E
|--------------|--------------|--------------|--------------|
|--------------|--------------|--------------|--------------|
|--------------|--------------|--------------|--------------|
|-(2)--------5-|-(5)--------3-|-(3)----------|------------2-|
|-(0)--------2-|-(2)--------3-|-(3)--------7-|-(7)--------0-|
|--------------|--------------|------------0-|-(0)----------|


  +H.      E E   +H.      E E   +E  E E E +E  E E E   H.      E E
|--------------|--------------|---------------------|-------------|
|--------------|--------------|---------------------|-------------|
|--------------|--------------|---------------------|-------------|
|-(2)--------5-|-(5)----------|---------3-(3)---3-2-|-----------2-|
|-(0)--------2-|-(2)--------2-|-(2)-3-5-------5-----|-7---------0-|
|--------------|--------------|---------------------|-0-----------|


  +H.      E E   +H.      E E   +H.      E E   +H.      E E
|--------------|--------------|--------------|--------------|
|--------------|--------------|--------------|--------------|
|--------------|--------------|--------------|--------------|
|-(2)--------5-|-(5)--------3-|-(3)----------|------------2-|
|-(0)--------2-|-(2)--------3-|-(3)--------7-|-(7)--------0-|
|--------------|--------------|------------0-|-(0)----------|


                                                    $
                                                            PM----|
  +H.      E E   +H.      E E   +E  E E E +E  E E E     +E  E E E E E Q
|--------------|--------------|---------------------||-------------------|
|--------------|--------------|---------------------||o------------------|
|--------------|--------------|---------------------||--------------5-7--|
|-(2)--------5-|-(5)----------|---------3-(3)---3-7-||--(7)---------5-7--|
|-(0)--------2-|-(2)--------2-|-(2)-3-5-------5---0-||o-(0)-0-0-0-0------|
|--------------|--------------|---------------------||-------------------|


                             PM----|                       PM
  +E  E E E +Q   E E  7x +E  E E E E E Q    +E  E E E +Q   E E   +H.      E E
|---------------------||------------------|--------------------|--------------|
|--------------------o||------------------|--------------------|--------------|
|-(7)-0-5-------------||-------------5-7--|-(7)-0-5------------|--------------|
|-(7)-0-5-5-(5)--0-7--||-(7)---------5-7--|-(7)-0-5-5-(5)------|------------2-|
|---------5-(5)--0-0-o||-(0)-0-0-0-0------|---------5-(5)----7-|-(7)--------0-|
|---------------------||------------------|----------------0-0-|-(0)----------|


  +H.      E E   +H.      E E   +H.      E E   +H.      E E
|--------------|--------------|--------------|--------------|
|--------------|--------------|--------------|--------------|
|--------------|--------------|--------------|--------------|
|-(2)--------5-|-(5)--------3-|-(3)----------|------------2-|
|-(0)--------2-|-(2)--------3-|-(3)--------7-|-(7)--------0-|
|--------------|--------------|------------0-|-(0)----------|


  +H.      E E   +H.      E E   +E  E E E +E  E E E   H.      E E
|--------------|--------------|---------------------|-------------|
|--------------|--------------|---------------------|-------------|
|--------------|--------------|---------------------|-------------|
|-(2)--------5-|-(5)----------|---------3-(3)---3-2-|-----------2-|
|-(0)--------2-|-(2)--------2-|-(2)-3-5-------5-----|-7---------0-|
|--------------|--------------|---------------------|-0-----------|


  +H.      E E   +H.      E E   +H.      E E   +H.      E E
|--------------|--------------|--------------|--------------|
|--------------|--------------|--------------|--------------|
|--------------|--------------|--------------|--------------|
|-(2)--------5-|-(5)--------3-|-(3)----------|------------2-|
|-(0)--------2-|-(2)--------3-|-(3)--------7-|-(7)--------0-|
|--------------|--------------|------------0-|-(0)----------|


  +H.      E E   +H.      E E   +E  E E E +E  E E E     +H.      E E
|--------------|--------------|---------------------||---------------|
|--------------|--------------|---------------------||o--------------|
|--------------|--------------|---------------------||---------------|
|-(2)--------5-|-(5)----------|---------3-(3)---3-5-||--(5)--------7-|
|-(0)--------2-|-(2)--------2-|-(2)-3-5-------5---3-||o-(3)--------5-|
|--------------|--------------|---------------------||---------------|


  +H.      E E   +W            E E E E E E E E  3x +H.      E E
|--------------|------------|-------------------||--------------|
|--------------|------------|------------------o||--------------|
|--------------|------------|-------------------||--------------|
|-(7)--------9-|-(9)--------|-10-9---7---4---5--||-(5)--------7-|
|-(5)--------7-|-(7)--------|--8-7---5---2---3-o||-(3)--------5-|
|--------------|------------|-------------------||--------------|


                    PM     PM       PM----|             PM     PM
  +W            E E E  E E E  E E   E E E E H       E E E  E E E  E E
|------------|--------------------|--------------|--------------------|
|------------|--------------------|--------------|--------------------|
|------------|--------------------|--------------|--------------------|
|-(7)--------|-10S9---10S9---10S9-|---------9----|-10S9---10S9---10S9-|
|-(5)--------|--8S7----8S7----8S7-|---------7----|--8S7----8S7----8S7-|
|------------|------0------0------|-0-0-0-0------|------0------0------|


                                           To Coda
  PM----|             PM     PM       PM----|             PM     PM
  E E E E H       E E E  E E E  E E   E E E E H       E E E  E E E  E E
|--------------|--------------------|--------------|--------------------|
|--------------|--------------------|--------------|--------------------|
|--------------|--------------------|--------------|--------------------|
|--------------|-10S9---10S9---10S9-|---------9----|-10S9---10S9---10S9-|
|---------5----|--8S7----8S7----8S7-|---------7----|--8S7----8S7----8S7-|
|-0-0-0-0-3----|------0------0------|-0-0-0-0------|------0------0------|


                       D.S. al Coda
                             2/4
  PM----|
  E E E E H      +W           +Q   Q
|--------------|------------|---------|
|--------------|------------|---------|
|--------------|------------|---------|
|--------------|------------|---------|
|---------5----|-(5)--------|-(5)-----|
|-0-0-0-0-3----|-(3)--------|-(3)-----|


  &
 4/4
       PM     PM       PM----|               PM     PM       PM----|
   E E E  E E E  E E   E E E E H         E E E  E E E  E E   E E E E H
|--------------------|--------------||---------------------|--------------|
|--------------------|--------------||o--------------------|--------------|
|--------------------|--------------||---------------------|--------------|
|-10S9---10S9---10S9-|--------------||--10S9---10S9---10S9-|---------9----|
|--8S7----8S7----8S7-|---------5----||o--8S7----8S7----8S7-|---------7----|
|------0------0------|-0-0-0-0-3----||-------0------0------|-0-0-0-0-7----|


       PM     PM       PM----|
   E E E  E E E  E E   E E E E H     4x H.      E E   +H.      E E
|--------------------|---------------||-------------|--------------|
|--------------------|--------------o||-------------|--------------|
|--------------------|---------------||-------------|--------------|
|-10S9---10S9---10S9-|---------------||-5---------7-|-(7)--------9-|
|--8S7----8S7----8S7-|---------5----o||-3---------5-|-(5)--------7-|
|------0------0------|-0-0-0-0-3-----||-------------|--------------|


  +W            E E E E E E E E     +H.      E E   +H.      E E
|------------|------------------||---------------|--------------|
|------------|------------------||o--------------|--------------|
|------------|------------------||---------------|--------------|
|-(9)--------|-10-9---7---4---5-||--(5)--------7-|-(7)--------9-|
|-(7)--------|--8-7---5---2---3-||o-(3)--------5-|-(5)--------7-|
|------------|------------------||---------------|--------------|


  +W            E E E E E E E E  6x +H.      E E   +H.      E E
|------------|-------------------||--------------|--------------|
|------------|------------------o||--------------|--------------|
|------------|-------------------||--------------|--------------|
|-(9)--------|-10-9---7---4---5--||-(5)--------7-|-(7)----------|
|-(7)--------|--8-7---5---2---3-o||-(3)--------5-|-(5)--------7-|
|------------|-------------------||--------------|------------0-|


        PM--------|         PM--------|
    +E  E E E E E E E   +E  E E E E E E E  4x
||--------------------|--------------------||
||o-------------------|-------------------o||
||--------------------|--------------------||
||--------------------|--------------------||
||o-(7)-------------7-|-(7)-------------7-o||
||--(0)-0-3-0-2-0-0-0-|-(0)-0-3-0-2-3-5-0--||


          PM--------|
      +E  E E E E E E E  4x +E  E Q  H
|-||---------------------||-------------*|
|-||o-------------------o||-------------*|
|-||---------------------||-------------*|
|-||---------------------||-------------*|
|-||o-(7)-------------7-o||-(7)---------*|
|-||--(0)-0-3-0-2-0-0-0--||-(0)---------*|



Duration Legend
---------------
W - whole; H - half; Q - quarter; E - 8th; S - 16th; T - 32nd; X - 64th; a - acciaccatura
+ - note tied to previous; . - note dotted; .. - note double dotted
Uncapitalized letters represent notes that are staccato (1/2 duration)
Irregular groupings are notated above the duration line
Duration letters will always appear directly above the note/fret number it represents the
duration for.  Duration letters with no fret number below them represent rests.  Multi-
bar rests are notated in the form Wxn, where n is the number of bars to rest for.  Low
melody durations appear below the staff

Tablature Legend
----------------
 h   - hammer-on
 p   - pull-off
 b   - bend
 pb  - pre-bend
 r   - bend release (if no number after the r, then release immediately)
 /\  - slide into or out of (from/to "nowhere")
 s   - legato slide
 S   - shift slide
 - natural harmonic
[n]  - artificial harmonic
n(n) - tapped harmonic
 ~   - vibrato
 tr  - trill
 T   - tap
 TP  - trem. picking
 PM  - palm muting
\n/  - tremolo bar dip; n = amount to dip
 \n  - tremolo bar down
 n/  - tremolo bar up
/n\  - tremolo bar inverted dip
 =   - hold bend; also acts as connecting device for hammers/pulls
 <> - volume swell (louder/softer)
 x   - on rhythm slash represents muted slash
 o   - on rhythm slash represents single note slash

Misc Legend
-----------
 |  - bar
||  - double bar
||o - repeat start
o|| - repeat end
*|  - double bar (ending)
 :  - bar (freetime)
 $  - Segno
 &  - Coda
Tempo markers -  = BPM(8/16=s8/s16), where s8 = swing 8ths, s16 = swing 16ths

Related for Lone Justice tab