Song name
# A B C D E F G H I J K L M N O P Q R S T U V W X Y Z

Anthrax - The Constant tab

Intro... (played once)*Palm Mute*

D#----------|
A#----------|
F#----------|
C#-1-1--1-1-|
G#-1-1--1-1-|
C#-1-1--1-1-|

Main Riff... (2nd time playing through go back to Intro part halfway towards the riff ) 
(then Repeat Riff again same way)

D#-------------------------------------------------------|
A#-------------------------------------------------------|
F#-------------------------------------------------------|
C#-3-5---0-3-5-0-3-5-0-3-5-0-3-5---0-3-5-0-3-5---0-3-5---|
G#-3-5-3-0-3-5-0-3-5-0-3-5-0-3-5-3-0-3-5-0-3-5-3-0-3-5-5-|
C#-3-5---0-3-5-0-3-5-0-3-5-0-3-5---0-3-5-0-3-5---0-3-5---|

Verse... *Palm Mute most of the Zeros*

D#---------------------------------------------------|
A#---------------------------------------------------|
F#---------------------------------------------------|
C#---------------------------------------------------|
G#------------------------------------------3--------|
C#-0-0-0-0-0-000-0-0-0-0-0-000-0-0-0-0-0-3-5-0-3-5-0-|

(Repeat Intro and Main Riff before Pre Chorus)

Pre-Chorus... (bend the 2,3 notes a bit as it leads into Chorus)

D#--------------|
A#------------3-|
F#------------2-|
C#-0------------|
G#-0------------|
C#-0------------|

Chorus...(first 3 times play it a bit quick, then 4th time let most of the notes ring 
out as chorus closes out)*palm mute all notes on G# String*

D#-------------------------------------------------------------------------|
A#-------------------------------------------------------------------------|
F#-------------------------------------------------------------------------|
C#----5-5h0----5-5h0----5h0----5-5h0----5-5h0----5h0----5-5h0-------5-5h0--|
G#-5-5------5-5------5-5----4-4------4-4------4-4----3-3------3--2-2-----2-|
C#-------------------------------------------------------------------------|

(the very last notes of the chorus is just Open Notes on the C#,G#,C# Strings which 
leads back into the verse)

Bridge... (starts with open note and breaks for a bit) Repeat this a while until solo 
shows up which adds the 3 on the D String then pause. then back to the beginning part of 
the bridge but pause on the 3 on the Low E. repeat that twice.

D#-------------------------------------------------------------------------|
A#-------------------------------------------------------------------------|
F#-------------------------------------------------------------------------|
C#--------------------------------------------------------3----------------|
G#----5--5-3---5-3--5-3------5--5-3---5-3--5-3------5--5-3--------5--5-3---|
C#-0-0------3-----3----3--0-0------3-----3----3--0-0-----------0-0------3--|

Repeat Pre Chorus, Repeat Chorus. and that's it! Hope it helps and Thanks for Checking this out XD
Tap to rate this tab
 
# A B C D E F G H I J K L M N O P Q R S T U V W X Y Z