Song name
# A B C D E F G H I J K L M N O P Q R S T U V W X Y Z

Anthrax - Stealing From A Thief tab

duuuuuuuuuuuuuuude this is as accurate as I could make it But this is one of my favorites
|------------------|
|------------------|
|------------------|
|------------------|
|02-3-2-0-230-02320|dude play this 2x


|----------|
|----------|
|----------|
|----------|
|----5----5|
|02325-0235|
CHorus
|----------------------------------------------|
|-5-5----5----------5---------5----------5-----|
|7-7----7-7-5-5----7-7-5-7---7-75------57-75-5-|
|------------7----------7---------75-57--------|
|----------------------------------------------|
|----------------------------------------------|














well dude thats all i got bro hope u like  it see yaaaaaaaaaaaa

Tap to rate this tab
# A B C D E F G H I J K L M N O P Q R S T U V W X Y Z