Guitaretab - guitar tabs
Song name
# A B C D E F G H I J K L M N O P Q R S T U V W X Y Z

Anthrax - Subjugator tab

              3x

||-o------------------------o-||--------------------------|
||-o------------------------o-||--------------------------|
||--2-2-2-2-2-2-2-2-2-2-2-2---||-2-2-2-2-2-2-2-2-2-2-2-2--|
|
|
| Gtr  2                     3x  
|
||-o------------------------o-||--------------------------|
||-o------2-----------------o-||-------2---2-4-2-4-5-4-2--|
||--2-4-5---5-4-5-4-2-4-2-0---||-2-4-5---5----------------|

 
                              3x

||-o-------------------------o-||-------------------------|
||-o-------------------------o-||-------------------------|
||---5-5-5-5-5-5-5-5-5-5-5-5---||-5-5-5-5-5-5-5-5-5-5-5-5-|
|
|
|                             3x
|
||-o-------------------------o-||-------------------4-----|
||-o-----4-5-4---4-----------o-||-----4-5-4-5-7-5-7---7-5-|
||---5-7-------7---7-5-7-5-4---||-5-7---------------------|

 

 

|-------------------------|-------------------------|
|-4-4-4-4-4-4-4-4-4-4-4-4-|-4-4-4-4-4-4-4-4-4-4-4-4-|
|-------------------------|-------------------------|
|
|
|  semi-harm-------------|
|
|-------------------------|-------------------4---4-|
|-4-5---4-5---4-5---4-5---|-4---4-5-4-5-7-5-7---7---|
|-----7-----7-----7-----7-|---7---------------------|

 
|-------------------------|--------------------------|
|-7-7-7-7-7-7-7-7-7-7-7-7-|-7------------------------|
|-------------------------|--------------------------|
|
|
|                                               
|
|-6-7---6-7---6-7---6-7---|-7-6---6-4---4-------p-p--|
|-----9-----9-----9-----9-|-----9-----7---6-7--7-6-4-|
|-------------------------|--------------------------|

 

 

 

 Rhy 1 (both gtrs)

 

||--------------------------|--------------------|
||--------------------------|--------------------|
||-o------------------------|-----------------2--|
||-o------------------------|------------4----2--|
||---4----------4-----------|------------4----0--|
||---2--2-2-2-2-2---2-2-2-2-|-2--2-2-2-2-2--2----|

 

   out in the streets        we抮e fighting
 we抮e dirty and mean        so run for your

 

                                                   
end 1

                  Gtr 1   *       *      *       *
bottom notes only

|-----------------------|-------------------------------|
|-----------------------|-------------------------------|
|-----------------------|-6---p----p-p----p-------------|
|-----------------------|----9-7--9-7-6--7-6-----6--p---|
|-4----------4----------|-4-------2-----------9----9-7--|
|-2--2-2-2-2-2--2-2-2-2-|----------------5-------4------|

 

tonight-

lives------

 

 

  Rhy 2

|-5-------------5-------------|-5-----------------------5----------------|
|-5-------------5-------------|-5-----------------------5----------------|
|-3----3𦠫-3--3----3-3-3-3--|-3------3---3---3---3----3-----3----2-----|
|-----------------------------|------------------------------------------|
|
|
|  tr~~~ tr~~~  tr~~~  tr~~~~       p  h  p  h  p  h 
p  h  p  h  p 
|-----------------------------|---20-19-20-19-20-19-20-19-20-19-20-19----|
|----------------------17(18)-|------------------------------------------|
|---------------16(17)--------|------------------------------------------|
|---------15(17)--------------|------------------------------------------|
|--14(15)---------------------|------------------------------------------|
|-----------------------------|------------------------------------------|

 

 
|-2------------------2------------|-2----------2------------|
|-2------------------2------------|-2----------2------------|
|-0----0--0--0--0----0--0--0--0---|-0--0-0-0-0-0--0-0-0-0-0-|
|---------------------------------|-------------------------|
|
|
|
|---------------------------------|-------------------------|
|-17----17----17--b-----17--b--17-|-17-17-17-17-17-17----b--|
|----------------19--16----19-----|---------------------19--|
|----19---------------------------|-------------------------|
|---------------------------------|-------------------------|
|---------------------------------|-------------------------|

 

 

 

 

 

 

 

 

|-8----------------8--------------|--8----------8----------|
|-8----------------8--------------|--8----------8----------|
|-6---6--6--6--6---6---6--6--6--6-|--6--6-6-6---6--6--6\---|
|---------------------------------|------------------------|
|
|
|---------------------------------|-----------------15-----|
|-11----11--b-11--b--11-------11--|--b-11--b--11--b-----18-|
|----13----13----13-----13-14-----|-13----13-----13--------|
|---------------------------------|------------------------|
|---------------------------------|------------------------|
|---------------------------------|------------------------|

 

                                                     
end 2

|-5---------------5-----------|-5------------------8--------7----|
|-5---------------5-----------|-5--------6---------8--------7----|
|-3----3--3-3-3---3---3-3-3-3-|-3--------6---------6--------5----|
|-----------------------------|----------4-----------------------|
|
|                                b                   
end solo
|-15---15----15--b-15-15--b---|-18--15----------b----------------|
|----18---18----18-------18---|--------18--15--18--15------------|
|-----------------------------|------------------------1715--17-|
|-----------------------------|----------------------------------|
|-----------------------------|----------------------------------|
|-----------------------------|----------------------------------|

 

 

w/rhy 1 2x
We stand side to side, with our fists in the air
We live for the night, on the razor抯 edge


 

 

W/rhy 2

 

                                                P  h 
p  h  p  h  p  h  p  

|---------------------------------h--p--h---|-20-19-20-19-20-19-20-19-20-19--|
|---------------------h--p--h---17-18-17-18-|--------------------------------|
|---------h--p--h---16-17-16-17-------------|--------------------------------|
|---h---15-17-15-17-------------------------|--------------------------------|
|-15-16-------------------------------------|--------------------------------|
|-------------------------------------------|--------------------------------|

 

          grad. bend                                  
                            

|-12--15-----(15)----|-12-------12--------------------|---------------------|
|--------------------|--------------15-12-------------|-b---------b---------|
|--------------------|------15------------14~~~~~~--6-|-8--8--6---8---8--6--|
|--------------------|--------------------------------|---------------------|
|--------------------|--------------------------------|---------------------|
|--------------------|--------------------------------|---------------------|

 

 

|-b---------------------------|----------------------------------|
|-9---9--6---p----------------|----------------------------------|
|-----------8-6---------------|----------------15----15-17-15-17-|
|-----------------8~~~~~~~~~~-|-15-17-17-17-17----17-------------|
|-----------------------------|----------------------------------|
|-----------------------------|----------------------------------|

 

                              b p                     
       

|-----------------15-----15--18--15-|--b----------------|
|-15--15-18-15-15-----18------------|-19~~~~~~~~~~~~~~~~|
|-----------------------------------|-------------------|
|-----------------------------------|-4-----------------|
|-----------------------------------|-4-----------------|
|-----------------------------------|-2-----------------|

 

 
   pick slide  7 measures
|--x\--------||----------|| double time
|--x\--------||----------||
|------------||----------||
|-4----------||----------||
|-4----------||----------||
|-2----------||----------||

 

Rhy 3
|-2--------------|-----------------|-4-----------------|
|-2--------------|-----------------|-4-----------------|
|-0--0-0-0-0-0-0-|-0-0-0-0-0-0-0-0-|-2---2-2-2-2-2-2---|
|----------------|-----------------|-------------------|
|
|
|----------------|-----------------|-------------------|
|-----p------p---|-----p-------p---|------p---------p--|
|-2--4-0-4--5-0--|-5--7-0--7--9-0--|-9--11-0--11--12-0-|
|----------------|-----------------|-------------------|
|----------------|-----------------|-------------------|
|----------------|-----------------|-------------------|

 

 

|-----------------|-5----------------|------------------|
|-----------------|-5----------------|------------------|
|-2-2-2-2-2-2-2-2-|-3---3-3-3-3-3-3--|-3-3-3-3-3-3-3-3--|
|-----------------|------------------|------------------|
|
|
|-----------------|------------------|---------b--------|
|------p-------p--|---------------17-|-20----(20)-------|
|-12-14-0-14-16-0-|-16-17-0-17-19----|------------------|
|-----------------|------------------|------------------|
|-----------------|------------------|------------------|
|-----------------|------------------|------------------|

 

                               End 3

|-7--------------------|--9----7----5---|
|-7--------------------|--9----7----5---|
|-5---5--5--5--5--5--5-|--7----5----3---|
|----------------------|----------------|
|
|
|-17-------------------|----------------|
|-----20-20-17-19-17---|---------12--12-|
|----------------------|--17/22---------|
|----------------------|----------------|
|----------------------|----------------|
|----------------------|----------------|

 

 

 

 

w/Rhy 3

 

|--b---12-----|---------------------------|-------------------------|
|-15-------15-|-14--12--------------------|-------------------------|
|-------------|----------1414~~~~-14--12-|-14-14-12---------------|
|-------------|---------------------------|------------12-141412-|
|-------------|---------------------------|-------------------------|
|-------------|---------------------------|-------------------------|

 

                             p     p  p               
                   

|---------------|-15-14-12-14-12-15-14-12-14-12-|
|---------------|-------------------------------|
|---------------|-------------------------------|
|---------------|-------------------------------|
|-14~~~~~~~~~~~\|-------------------------------|
|---------------|-------------------------------|

 

        p  h  p             h  p                      
          

|-18--15-14-15-14--17-15--14-15-14-|--19-17-15-15-15-19-17-15-15-|
|----------------------------------|-----------------------------|
|----------------------------------|-----------------------------|
|----------------------------------|-----------------------------|
|----------------------------------|-----------------------------|
|----------------------------------|-----------------------------|

 
   b            grad bend     semi harm---------|     
             

|-20~~~~~~~\-|-b------|-------b--b--b-|--b--b--b--|---------|
|------------|-8(8)~~|~~~~---8--8--8-|--8--8--8--|---------|
|------------|--------|---------------|-----------|---------|
|------------|--------|---------------|-----------|-5~~~~~~~|
|------------|--------|---------------|-----------|---------|
|------------|--------|---------------|-----------|---------|

 

 

                            A.H.                  
A.H.  A.H.   

|----------|---------|----------|----------|-----------------|
|-----h-p--|------b--|------b---|----------|-----------------|
|-7--5-7-5-|------5\-|----7-7---|----------|-------*-----*---|
|----------|-7--7----|----------|----------|-7-5---7-5---7-5-|
|----------|---------|----------|-7~~~~~~~~|-----7-----7-----|
|----------|---------|----------|----------|-----------------|

 

       A.H    A.H. A.H.    A.H.              A.H.     
  A.H.

|-------------------------|-------------------------|-----------------|
|-------------------------|-------------------------|------------b-p--|
|-------*-----*-----*-----|-*-----------------*-----|-----*--5𧯟--5-|
|-7--5--7--5--7--5--7--5--|-7--5-----7--5-----7--5--|---5-7-----------|
|-------------------------|-------7--------7--------|-7---------------|
|-------------------------|-------------------------|-----------------|

 

                                                      
 grad. bend

|------------------|-----------------|-----------------|--------|
|----------b--5----|-----------------|-----------------|-b------|
|----5--7--7----7--|-----------------|-----------------|-5------|
|-7----------------|-------5---------|---------5---5-7-|--------|
|------------------|-5-6-7---7-5-----|-----5-7---7-----|--------|
|------------------|-------------8-5-|-5-8-------------|--------|

 

 
 

  Rhy 4
[ Tab from: http://www.guitaretab.com/a/anthrax/70926.html ]
||-------------------|-----------------2-|-----------------|----------2----|
||-o-----------------|-----------------2-|-----------------|----------2----|
||-o-----------------|-----------------0-|-----------------|----------0----|
||---2-2-2-2-2-2-2-2-|-2-2-2-2-2-2-2-----|-2-2-2-2-2-2-2-2-|-2-2-2-2-------|

 

 unleashing the      sound lashing        out striking
    down
 Taking   their      lives,   crushing    them just
like   flies       The

 

                                                      
       End 4

|-------------------|---------------2-|-----------------|----------h----||
|-------------------|---------------2-|-----------------|---------2-4-o-||
|-------------------|---------------0-|-----------------|---------2-4-o-||
|-2-2-2-2-2-2-2-2-2-|-2-2-2-2-2-2-----|-2-2-2-2-2-2-2-2-|-2-2-2-2-------||

 all  those   who    stand  in  the    way----------
 cries  of   the     wounded    in     pain-----

 

 

(return spot)

Chorus

W/Rhy 3 2x

 

 Fighting the fight as we race through the night, with
power like never before
 Hammering bashing them, pounding them hard so we
won抰 take a fall

 

 

W/Rhy 4 2x

 

Like the raging inferno we抣l torture and burn (you)
Up in a sea of flames
We抣l beat you and whip you the honor we抣l strip you
Down on your knees and beg

 
 

Half time

 

|-5------------------|-5----------|-2--------|-2--------------|
|-5------------------|-5----------|-2--------|-2--------------|
|-3------------------|-3----------|-0--------|-0--------------|
|--------------------|------------|----------|----------------|
|
| harm and dive 1     A.H.(both)  trem
bar-------------|
|-\-------------/----|-7----------|--\-------|-----------------|
|------\-------/-----|-7----------|-------\--|-----------------|
|-7----------\/------|------------|----------|\----------------|
|--------------------|------------|----------|---\-------------|
|--------------------|------------|-0--------|--------\--------|
|--------------------|------------|----------|-----------------|

         We抮e fighting it out till the end

 

|-8-------------------|-8-----|-5---------|-5--------8---9----|
|-8-------------------|-8-----|-5---------|-5----6---8---9----|
|-6-------------------|-6-x\-|-3---------|-3----6---6---7----|
|---------------------|----x\-|-----------|------4------------|
|
|           T Bar 4    T Bar
|---------------------|-------|----\------|-------------------|
|---------------------|-------|------\----|-------------------|
|---------------------|---\---|---------\-|-------------------|
|---------------------|----\--|--5--------|-\-----------------|
|-6~~~~~~~~~~\--------|-6---\-|-----------|----\--------------|
|-------------\-------|------\|-----------|-------\-----------|

 

             We抮e living our lives   for the sin

  
                                       Tr~~~~~ 4x     
 

||--------------------|--------------------------||
||--------------------|--------------------------||
||-o------------------|------------------------o-||
||-o--5--5------------|-----5------------------o-||
||----5--5---5--4---0-|--4------0---5---3-(4)----||
||----3--3------------|--------------------------||

 

w/Rhy3 2x

 

|-14-12----------------------|------------------------------|
|-------15-14-15-12-14-12----|-15-14-12-14-12----12---------|
|-------------------------14-|----------------14----14--12--|
|----------------------------|------------------------------|
|----------------------------|------------------------------|
|----------------------------|------------------------------|
 
 

|---------------------------|--------------------------------|
|----12---------------------|--------------------------------|
|-14----14-12-11-14--12--11-|-14-12-11-12--11-14--11---------|
|---------------------------|-------------------------14--12-|
|---------------------------|--------------------------------|
|---------------------------|--------------------------------|

 

 

|--------------------------|-----------|-------------------------|
|--------------------------|-----------|-------------------------|
|--------------------------|-----------|-------------------------|
|-12----------12-----------|-----------|-------------------------|
|----14-12-14-----16-14-12-|-----------|-------------10-10-12-12-|
|--------------------------|-12~~~~~~~\|-10-10-12-12-------------|

 
 
  

|------------------------|-----------------------|--b---------------|
|------------------------|--------11-11-11-15-15-|-15----15-11------|
|-------------9-----11-9-|-12--11----------------|------------12-14-|
|-10-10-12-12---13-------|-----------------------|------------------|
|------------------------|-----------------------|------------------|
|------------------------|-----------------------|------------------|

 

 

                                 b  

|----------b--|--17-----17--17--20-|-20-17----p------------|------------|
|-17--20--20--|-----21-------------|--------20-19--17------|------------|
|-------------|--------------------|-----------------19-17-|------------|
|-------------|--------------------|-----------------------|-19~~~~~\---|
|-------------|--------------------|-----------------------|------------|
|-------------|--------------------|-----------------------|------------|

 

w/Rhy 4 2x

 

|-----------------|--------------------|--------9--------|--------------|
|-----------------|-2------------------|---h--b----12--9-|---b------14--|
|-2------4--------|-----p-h--7---p-h---|-9--11-----------|--11~~~~~~----|
|----4-4---4--4-4-|----6-4-6---11-9-11-|-----------------|--------------|
|-----------------|--------------------|-----------------|--------------|
|-----------------|--------------------|-----------------|--------------|

 

 

                                                      
   b   /\/\/\

|--------------------|----------h--p---------p--------14-17-|-17--------|
|-17------17---b--17-|-14-----14-17-14-----17-14----14------|--------19-|
|-------------16-----|-----16-----------16-------16---------|-----------|
|--------------------|--------------------------------------|-----------|
|--------------------|--------------------------------------|-----------|
|--------------------|--------------------------------------|-----------|

 

    p                                                 
                   

|-17-16--------14------------p--p---|-----------------------------|
|---------18--------17-16-17--15-14-|-17--16--14-----14-----------|
|-----------------------------------|-------------14----16-14-16--|
|-----------------------------------|-----------------------------|
|-----------------------------------|-----------------------------|
|-----------------------------------|-----------------------------|

 

 

|---------------------|--------------------|------------------------------|
|---------------------|--------------------|-------b-p--------------------|
|-16--14----14--------|----------------p---|-14---16--14-----14-----------|
|--------16----16--14-|-16~~~~~~-14--16-14-|--------------16-----16---14--|
|---------------------|--------------------|------------------------------|
|---------------------|--------------------|------------------------------|

 

 
|---------------------------|-----------------------|--------------------|
|---------------------------|-----------------------|--------------------|
|---------------------------|-----------------------|--------------------|
|-16--14--------------------|-----------------------|--------------7-----|
|---------16-14--12--14--12-|-----------------------|-----6---6--9---10--|
|---------------------------|-14~~~~~~~~~~~~~~(14)\-|-5-8---8------------|

  


 

|--------------------------|-------------------12-|-15----------------------|
|--------------------------|----------------14----|----11-14-----13----12---|
|--------------------11-12-|----12-15-12-15-------|-----------15----14---14-|
|-------11-14-11--14-------|-14-------------------|-------------------------|
|-12-13--------------------|----------------------|-------------------------|
|--------------------------|----------------------|-------------------------|

 

 

|--------------------------|-------------------------|------------------------|
|--------------------------|-------------------------|------------------------|
|----12--------------------|-------------------------|------------------------|
|-14----14-13-14--11-13----|-11----------------------|-------------------9-12-|
|-----------------------14-|----14-13-11-13-10-12----|-10--------------10-----|
|--------------------------|----------------------13-|----13-12-10-9-12-------|

 

|-------------|---h-b--15--12-|--b---------p---|---------------------------|
|-------------|-12-15---------|-15~~~~~~-15-14-|-12------------------------|
|-9~~~~~~(9)\-|---------------|----------------|----14-12-15-11---13-11----|
|-------------|---------------|----------------|------------------------14-|
|-------------|---------------|----------------|---------------------------|
|-------------|---------------|----------------|---------------------------|

 

 

|---------------|-5-----------|-----------------|-------------|---------|
|-----------p-b-|---8-5----p--|-----------------|-------------|---------|
|-11~~~~~~-5-7--|-------7-5-4-|-5-7-5-----------|-------------|---------|
|---------------|-------------|-------7-5-------|-------------|-5-7-5-7-|
|---------------|-------------|-----------7-5---|-----5---5-7-|---------|
|---------------|-------------|---------------8-|-5-8---8-----|---------|

 

W/Rhy 4 2x

                                       Grad bend

|-----14--b-14--b-|-14--b-14--b-14-|-17---------|----------------|
|--17----17----17-|----17----17----|------------|----------------|
|-----------------|----------------|------------|----------------|
|-----------------|----------------|------------|-------16-16-16-|
|-----------------|----------------|------------|----------------|
|-----------------|----------------|------------|----------------|

  

|------------------------|-------------------------|--------------------------|
|------------------b-p---|-------------------------|--------------------------|
|-------14-----14-16--14-|-14-16-------14----------|-14-----------------------|
|-16-16-----16-----------|-------14-16----16-14----|----16-14--16-16-14-------|
|------------------------|----------------------16-|--------------------14-16-|
|------------------------|-------------------------|--------------------------|

 
 
 
|----------------------|----------------|------------------|
|----------------------|----------------|------------------|
|----------------------|----------------|--------------9-9-|
|----------------------|---------7------|-7-9-9-9-11-11----|
|----------------------|-9-9-9-9----9-9-|------------------|
|-14~~~~~~~~~~~~~(14)\-|----------------|------------------|


 

|--------------------|----------------------|-14-14-14-16-16-16-17-17-|
|--h-----------------|-14-14-14-16-16-17-17-|-------------------------|
|-9-11--11-14--16-16-|----------------------|-------------------------|
|--------------------|----------------------|-------------------------|
|--------------------|----------------------|-------------------------|
|--------------------|----------------------|-------------------------|

 

                p            b                     

|-16-16-16-17-17-16-17-17-|-17~~~~~~~~~~~~~~~~~|~~~~~~~~~~~~~~~~(17)\--|
|-------------------------|--------------------|-----------------------|
|-------------------------|--------------------|-----------------------|
|-------------------------|--------------------|-----------------------|
|-------------------------|--------------------|-----------------------|
|-------------------------|--------------------|-----------------------|

                                        Tr~~~~~ 4x    
  

||--------------------|--------------------------||
||--------------------|--------------------------||
||-o------------------|------------------------o-||
||-o--5--5------------|-----5------------------o-||
||----5--5---5--4---0-|--4------0---5---3-(4)----||
||----3--3------------|--------------------------||

 

 

Chorus

W/Rhy 3 2x

 Fighting the fight as we race through the night, with
power like never before
 Hammering bashing them, pounding them hard so we
won抰 take a fall
 
W/Rhy 4 2x

Like the raging inferno we抣l torture and burn (you)
Up in a sea of flames
We抣l beat you and whip you the honor we抣l strip you
Down on your knees and beg


W/Rhy 3

Fighting the fight as we race through the night
 With power like never before

 

W/Rhy 3 1st 7 bars

Hammering, bashing them, pounding and smashing the
hard so we don抰 fall--


       * hold

|-9--7-5-|-------|-2-2\-|    
|-9--7-5-|-------|-2-2\-|         
|-7--5-3-|-------|-0-0\-|      
|--------|-------|------|
Related for Subjugator tab