Song name
# A B C D E F G H I J K L M N O P Q R S T U V W X Y Z

Anthrax - Skeletons In The Closet tab

#----------------------------------PLEASE NOTE---------------------------------#
#This file is the author's own work and represents their interpretation of the #
#song. You may only use this file for private study, scholarship, or research. #
#------------------------------------------------------------------------------#

SKELETONS IN THE CLOSET
As recorded by Anthrax
(From the 1987 Album AMONG THE LIVING)

Transcribed by B. Johnson
	

Words and Music by Anthrax
Arranged by Anthrax

Gtr I (E A D G B E) - 'Untitled'
Gtr II (E A D G B E) - 'Untitled'

   Intro
    Moderate Rock Q=152
   4/4
    Gtr I
    PM--------------------------------------------------|
    E E E E E E E E   E E E E E E E E  3x E E E E E E E E
||------------------|------------------||-----------------|
||o-----------------|-----------------o||-----------------|
||------------------|------------------||-----------------|
||------------------|------------------||-----------------|
||o-4-4-4-4-5-5-5-5-|-3-3-3-3-6-6-6-6-o||-4-4-4-4-5-5-5-5-|
||--2-2-2-2-3-3-3-3-|-1-1-1-1-4-4-4-4--||-2-2-2-2-3-3-3-3-|


                      Faster Q=208
  PM----|             PM----------------------------------------------|
  E E E E E E E E     S S E S S E S S E S S E   S S E S S E S S E S S E   4x
|-----------------||--------------------------|---------------------------||
|-----------------||o-------------------------|--------------------------o||
|-----------------||--------------------------|---------------------------||
|---------6-6-6-6-||--------------------------|---------------------------||
|-3-3-3-3-6-6-6-6-||o-------------------------|--------------------------o||
|-1-1-1-1-4-4-4-4-||--0-0-0-0-0-0-0-0-0-0-0-0-|-0-0-0-0-0-0-0-0-0-0-0-0---||


            PM--|           PM|
    Q  Q  E E E E   Q  Q  E E E E
||----------------|----------------||-|
||o---------------|---------------o||-|
||----------------|----------------||-|
||----------------|-------------5--||-|
||o-5--5--5-------|-5--5--5-----3-o||-|
||--3--3--3-2-0-2-|-3--3--3-1-0----||-|


    PM----------------------------------------------|
    S S E S S E S S E S S E   S S E S S E S S E S S E
||--------------------------|----------------------------||
||o-------------------------|---------------------------o||
||--------------------------|----------------------------||
||--------------------------|----------------------------||
||o-------------------------|---------------------------o||
||--0-0-0-0-0-0-0-0-0-0-0-0-|-0-0-0-0-0-0-0-0-0-0-0-0----||


            PM--|           PM|
    Q  Q  E E E E   Q  Q  E E E E
||----------------|----------------||
||o---------------|---------------o||
||----------------|----------------||
||----------------|-------------5--||
||o-5--5--5-------|-5--5--5-----3-o||
||--3--3--3-2-0-2-|-3--3--3-1-0----||


   1st Verse
                            PM----------------------------------------------|
    W          +W           S S E S S E S S E S S E   S S E S S E S S E S S E
||-----------|------------|-------------------------|-------------------------|
||o----------|------------|-------------------------|-------------------------|
||-----------|------------|-------------------------|-------------------------|
||--2--------|-(2)--------|-------------------------|-------------------------|
||o-2--------|-(2)--------|-------------------------|-------------------------|
||--0--------|-(0)--------|-0-0-0-0-0-0-0-0-0-0-0-0-|-0-0-0-0-0-0-0-0-0-0-0-0-|


          PM--|           PM|             PM--|           PM|
  Q  Q  E E E E   Q  Q  E E E E   Q  Q  E E E E   Q  Q  E E E E  4x
|---------------|---------------|---------------|----------------||
|---------------|---------------|---------------|---------------o||
|---------------|---------------|---------------|----------------||
|---------------|-------------5-|---------------|-------------5--||
|-5--5--5-------|-5--5--5-----3-|-5--5--5-------|-5--5--5-----3-o||
|-3--3--3-2-0-2-|-3--3--3-1-0---|-3--3--3-2-0-2-|-3--3--3-1-0----||


 Pre-Chorus
  $
  $$
  Q  Q  Q  Q    E E Q  E E Q    Q  Q  Q  Q    E E Q  E E Q
|-------------|---------------|-------------|---------------|
|-------------|---------------|-------------|---------------|
|-------------|---------------|-------------|---------------|
|-------4--3--|---------------|-------4--3--|---------------|
|-2--4--2--1--|-2-4----2-4----|-2--4--2--1--|-2-4----2-4----|
|-0--2--------|-0-2----0-2----|-0--2--------|-0-2----0-2----|


  Q  Q  Q  Q    E E Q  E E Q    Q  Q  Q  Q    E E Q  E E E E
|-------------|---------------|-------------|----------------||
|-------------|---------------|-------------|----------------||
|-------------|---------------|-------------|----------------||
|-------4--3--|---------------|-------4--3--|----------------||
|-2--4--2--1--|-2-4----2-4----|-2--4--2--1--|-2-4----2-4-1-2-||
|-0--2--------|-0-2----0-2----|-0--2--------|-0-2----0-2-----||


   Chorus
        PM----|         PM------|                         PM------|
    E E E E E E E E   E E E E E E E E   E E E E E E E E   E E E E E E E E
||------------------|-----------------|-----------------|-------------------||
||o-----------------|-----------------|-----------------|------------------o||
||------------------|-----------------|-----------------|-------------------||
||------------------|-----------------|-----------------|-3-3-3-3-3-3-------||
||o-------------1s2-|---0-0-0-0-0-1s2-|-----1s2-----1s2-|-1-1-1-1-1-1-1s2--o||
||--3p0-0-0-0-0-----|-3---------------|-3p0-----3p0-----|-------------------||


                                                          To Dbl. Coda
      PM----|         PM------|                         PM------|
  E E E E E E E E   E E E E E E E E   E E E E E E E E   E E E E E E E E
|-----------------|-----------------|-----------------|-----------------|
|-----------------|-----------------|-----------------|-----------------|
|-----------------|-----------------|-----------------|-----------------|
|-----------------|-----------------|-----------------|-3-3-3-3-3-3-----|
|-------------1s2-|---0-0-0-0-0-1s2-|-----1s2-----1s2-|-1-1-1-1-1-1-1s2-|
|-3p0-0-0-0-0-----|-3---------------|-3p0-----3p0-----|-----------------|


                                                        To Coda
                                                        2/4
      PM----|         PM------|                          PM----|
  E E E E E E E E   E E E E E E E E   E E E E E E E E    E E E E
|-----------------|-----------------|-----------------||----------||
|-----------------|-----------------|-----------------||----------||
|-----------------|-----------------|-----------------||----------||
|-----------------|-----------------|-----------------||-3-3-3-3--||
|-------------1s2-|---0-0-0-0-0-1s2-|-----1s2-----1s2-||-1-1-1-1--||
|-3p0-0-0-0-0-----|-3---------------|-3p0-----3p0-----||----------||


   4/4
    PM-------------------------------------------------
    S S E S S E S S E S S E   S S E S S E S S E S S E
||--------------------------|-------------------------|
||o-------------------------|-------------------------|
||--------------------------|-------------------------|
||--------------------------|-------------------------|
||o-------------------------|-------------------------|
||--0-0-0-0-0-0-0-0-0-0-0-0-|-0-0-0-0-0-0-0-0-0-0-0-0-|


                            1.
 -------------------------------------------------|
  S S E S S E S S E S S E   S S E S S E S S E S S E
|-------------------------|--------------------------||
|-------------------------|-------------------------o||
|-------------------------|--------------------------||
|-------------------------|--------------------------||
|-------------------------|-------------------------o||
|-0-0-0-0-0-0-0-0-0-0-0-0-|-0-0-0-0-0-0-0-0-0-0-0-0--||


    2.
            PM--|           PM|
    Q  Q  E E E E   Q  Q  E E E E
||----------------|----------------||
||o---------------|---------------o||
||----------------|----------------||
||----------------|-------------5--||
||o-5--5--5-------|-5--5--5-----3-o||
||--3--3--3-2-0-2-|-3--3--3-1-0----||


 2nd Verse
                          PM----------------------------------------------|
  W          +W           S S E S S E S S E S S E   S S E S S E S S E S S E
|----------|------------|-------------------------|--------------------------|
|----------|------------|-------------------------|--------------------------|
|----------|------------|-------------------------|--------------------------|
|-2--------|-(2)--------|-------------------------|--------------------------|
|-2--------|-(2)--------|-------------------------|--------------------------|
|-0--------|-(0)--------|-0-0-0-0-0-0-0-0-0-0-0-0-|-0-0-0-0-0-0-0-0-0-0-0-0--|


                 PM------|                PM|
  Q     Q     E  E     E  E    Q     Q  E E   E   E
|---------------------------|-----------------------|
|---------------------------|-----------------------|
|---------------------------|-----------------------|
|---------------------------|---------------------5-|
|-5-----5-----5-------------|--5-----5--5---------3-|
|-3-----3-----3--2-----0--2-|--3-----3--3-1---0-----|
|
| Gtr II
|    PM--------------------------|   ~~~~~~~~~~~~
| E  E  E  E  E  S  S  E  E    E  E  H       +E   E
|---------------------------|-----------------------|
|---------------------------|-----------------------|
|---------------------------|-----------------------|
|------------------------12-|-14-15-14------(14)-12-|
|---------11-12-14-14-15----|-----------------------|
|---12-13-------------------|-----------------------|


                      PM---|                     PM|
    Q         Q     E E  E  E        Q     Q   E E E E
|--------------------------------|-----------------------|
|--------------------------------|-----------------------|
|--------------------------------|-----------------------|
|--------------------------------|-------------------5---|
|---5---------5-----5------------|---5-----5---5-----3---|
|---3---------3-----3-2--0--2----|---3-----3---3-1-0-----|
|
|                                          ~~~~
|  +E   S  S  E  E  E E  E  E       +Q    +H.
|--------------------------------|-----------------------|
|--------------------------15b17-|-(15)--(15)------------|
|---------------------0----------|-----------------------|
|-(12)-14p12----12---------------|-----------------------|
|------------15----15---12-------|-----------------------|
|--------------------------------|-----------------------|


                          PM----------------------------------------------|
  W          +W           S S E S S E S S E S S E   S S E S S E S S E S S E
|----------|------------|-------------------------|--------------------------|
|----------|------------|-------------------------|--------------------------|
|----------|------------|-------------------------|--------------------------|
|-2--------|-(2)--------|-------------------------|--------------------------|
|-2--------|-(2)--------|-------------------------|--------------------------|
|-0--------|-(0)--------|-0-0-0-0-0-0-0-0-0-0-0-0-|-0-0-0-0-0-0-0-0-0-0-0-0--|


                     PM--------|                     PM|
   Q          Q    E E    E    E   Q     Q      E    E E  E
|--------------------------------|--------------------------|
|--------------------------------|--------------------------|
|--------------------------------|--------------------------|
|--------------------------------|------------------------5-|
|--5----------5----5-------------|-5-----5------5---------3-|
|--3----------3----3-2----0----2-|-3-----3------3----1-0----|
|
| Gtr II
|                  |----3----|
|  E      +Q     E Q    Q    Q     E  E.    E.  Q.        E
|-17pb18r(17)---16-----15---14---|---17----12---------------|
|--------------------------------|-------------15b17-----12-|
|--------------------------------|--------------------------|
|--------------------------------|--------------------------|
|--------------------------------|--------------------------|
|--------------------------------|--------------------------|


                          PM---------|                            PM|
   Q        Q        E    E     E    E       Q        Q        E  E E   E
|-----------------------------------------|-----------------------------------|
|-----------------------------------------|-----------------------------------|
|-----------------------------------------|-----------------------------------|
|-----------------------------------------|-----------------------------5-----|
|--5--------5--------5--------------------|--5--------5--------5--------3-----|
|--3--------3--------3----2-----0----2----|--3--------3--------3--1-0---------|
|
|                                                              ~~~
|  |--3--|  |--3--|  |---3---|  |---3---|    |--3--|  |--3--|
|  E  E  E  E  E  E  E  E    E  E  E    E    E  E  E  E  E  E  Q.      +E
|-----------------------------------------|-----------------------------------|
|-15p12----15p12----15p12------15p12------|-12h14-----------------------------|
|-------14-------14---------14---------14-|-------12h14-12--------------------|
|-----------------------------------------|----------------12-14------(14)\---|
|-----------------------------------------|-----------------------------------|
|-----------------------------------------|-----------------------------------|


                          PM----------------------------------------------|
  W          +W           S S E S S E S S E S S E   S S E S S E S S E S S E
|----------|------------|-------------------------|--------------------------|
|----------|------------|-------------------------|--------------------------|
|----------|------------|-------------------------|--------------------------|
|-2--------|-(2)--------|-------------------------|--------------------------|
|-2--------|-(2)--------|-------------------------|--------------------------|
|-0--------|-(0)--------|-0-0-0-0-0-0-0-0-0-0-0-0-|-0-0-0-0-0-0-0-0-0-0-0-0--|


                     PM-----|                 PM|
   Q        Q      E E   E   E    Q      Q  E E  E  E
|------------------------------|----------------------|
|------------------------------|----------------------|
|------------------------------|----------------------|
|------------------------------|--------------------5-|
|--5--------5------5-----------|--5------5--5-------3-|
|--3--------3------3-2---0---2-|--3------3--3-1--0----|
|
| Gtr II
|  Q       +H           +E   E    H.             E  E
|---------------------------15-|----------------15----|
|-15pb17r=(15)b17------(15)----|-15b17=============15-|
|------------------------------|----------------------|
|------------------------------|----------------------|
|------------------------------|----------------------|
|------------------------------|----------------------|


                            PM---|                         PM|
    Q           Q        E  E  E E    Q           Q     E  E  E  E
|----------------------------------|--------------------------------|
|----------------------------------|--------------------------------|
|----------------------------------|--------------------------------|
|----------------------------------|-----------------------------5--|
|---5-----------5--------5---------|--5-----------5-----5--------3--|
|---3-----------3--------3--2--0-2-|--3-----------3-----3--1--0-----|
|
|                              ~~
|   |---3----|
|  +E   +E   E  E     E  E  E  Q      S  S  S  S  E  E  E  E  E  E
|----------------------------------|--------------------------------|
|-(15)r(15)p12-------12------------|--------------------------------|
|--------------14b15----14-12-14---|-12h14p12----12-----------------|
|----------------------------------|----------14----14-12-----------|
|----------------------------------|----------------------14s12p10--|
|----------------------------------|--------------------------------|


                              PM-----------------------
   W             +W           S S E S S E S S E S S E
|--------------|------------|-------------------------|
|--------------|------------|-------------------------|
|--------------|------------|-------------------------|
|--2-----------|-(2)--------|-------------------------|
|--2-----------|-(2)--------|-------------------------|
|--0-----------|-(0)--------|-0-0-0-0-0-0-0-0-0-0-0-0-|
|
|  ~~~
|  Q.  E Q  Q     W           W
|--------------|------------|-------------------------|
|--------------|------------|-------------------------|
|--------------|------------|-------------------------|
|--------------|------------|-------------------------|
|--------------|------------|-------------------------|
|-12s==7s3-----|------------|-------------------------|


 -----------------------|
  S S E S S E S S E S S  E
|-------------------------------|
|-------------------------------|
|-------------------------------|
|-------------------------------|
|-------------------------------|
|-0-0-0-0-0-0-0-0-0-0-0--0------|
|
| H           Q     E    E
|-------------------------------|
|-------------------------------|
|-----------------------14b16===|
|-------------------------------|
|-------------------------------|
|-------------------------------|


             PM------|                      PM|
   Q   Q   E E  E    E        Q     Q    E  E E   E
|-------------------------|--------------------------|
|-------------------------|--------------------------|
|-------------------------|--------------------------|
|-------------------------|-----------------------5--|
|--5---5---5--------------|---5-----5----5--------3--|
|--3---3---3-2--0----2----|---3-----3----3--1-0------|
|
|               |---3---|
|  Q   Q   Q    E  E    E    +E   Q    Q    Q    +E
|-------------------------|--------------------------|
|-15------15-----------15-|-(15)------15-------------|
|-----14-------14-14------|------14--------14r==(14)-|
|-------------------------|--------------------------|
|-------------------------|--------------------------|
|-------------------------|--------------------------|


                                D.S. al Coda
                PM------|               PM|
   Q     Q   E  E  E      E     Q  Q  E E E E
|----------------------------|------------------||
|----------------------------|------------------||
|----------------------------|------------------||
|----------------------------|--------------5---||
|--5-----5---5---------------|--5--5--5-----3---||
|--3-----3---3--2--0------2--|--3--3--3-1-0-----||
|
|                               ~~
|  E  Q.     E  E  E     +E     W
|----------------------------|------------------||
|-15-------------------------|------------------||
|----14\----14-14-12b13-(12)-|------------------||
|----------------------------|-14---------------||
|----------------------------|------------------||
|----------------------------|------------------||


  &
  W          W
|----------|------||
|----------|------||
|----------|------||
|----------|------||
|----------|------||
|----------|------||


 Guitar Solo
   PM-------------------------------------------------
   E  E E  E E  E     E  E    E  E  E  E  E  E E   E
|--------------------------|-------------------------|
|--------------------------|-------------------------|
|--------------------------|-------------------------|
|--------------------------|-------------------------|
|--2--2-2--2-1--1-----1--1-|-------------------------|
|--------------------------|--3--3--3--3--0--0-0---0-|
|
| Gtr II
|                                         ~~~
|  E  E E  Q    S  S  E  E    E  E  E  E  Q.       E
|--------------------------|---------------------/13-|
|--------------------------|-------------------------|
|--------------------------|-------13-14-13----------|
|---------12---14-12----12-|-14-15-------------------|
|-14-15--------------15----|-------------------------|
|--------------------------|-------------------------|


 ----------------------------------------------------------------------------|
   E    E     E    E     E    E     E    E       E    E     E    E     E E E E
|---------------------------------------------|----------------------------------|
|---------------------------------------------|----------------------------------|
|---------------------------------------------|----------------------------------|
|---------------------------------------------|----------------------------------|
|--2----2-----2----2-----1----1-----1----1----|----------------------------------|
|---------------------------------------------|--3----3-----3----3-----0-0-0-0---|
|
|                                                                      ~~
|  |---3---|  |---3---|  |---3---|  |---3---|    |---3---|  |---3---|
|  E  E    E  E  E    E  E  E    E  E  E    E    E  E    E  E  E    E  H
|-17-15p==13-15p13s==12-16-13p==12-13p12------|-13p12----------------------------|
|------------------------------------------15-|---------15-17p15---12-17---------|
|---------------------------------------------|----------------------------------|
|---------------------------------------------|----------------------------------|
|---------------------------------------------|----------------------------------|
|---------------------------------------------|----------------------------------|


   PM---------------------------------------------------
   E  E  E  E  E  E  E  E    E  E  E  E  E     E  E  E
|-------------------------|----------------------------|
|-------------------------|----------------------------|
|-------------------------|----------------------------|
|-------------------------|----------------------------|
|--2--2--2--2--1--1--1--1-|----------------------------|
|-------------------------|--3--3--3--3--0-----0--0--0-|
|
|                               PM----------------------
|  E  E  E  E  E  E  E  E    E  E  E  E  S  S  E  E  E
|-------14----------------|----------------------------|
|-------------------------|----------------------------|
|-14s16----16-------------|----------------------------|
|-------------14s12-14----|----------------12-12-12-14-|
|----------------------12s|=10-------12-15-------------|
|-------------------------|----12-13-------------------|


 ----------------------------------------------------|
   E  E  E  E  E  E  E  E    E  E  E E  E    E   E   E
|-------------------------|----------------------------|
|-------------------------|----------------------------|
|-------------------------|----------------------------|
|-------------------------|----------------------------|
|--2--2--2--2--1--1--1--1-|----------------------------|
|-------------------------|--3--3--3-3--0----0---0---0-|
|
|----------|                            ~~~~~
|  E  E  E  E  E  E  E  E    E  E  Q    Q       +Q
|-------------------12-13-|----12----------------------|
|----------12-13-15-------|-15----15---15b17---(15)\---|
|----13-14----------------|----------------------------|
|-15----------------------|----------------------------|
|-------------------------|----------------------------|
|-------------------------|----------------------------|


    PM--|   PM--|     PM---|     PM---|
  E E E E E E E E   E E  E E  E  E  E E
|-----------------|---------------------|
|-----------------|---------------------|
|-----------------|---------------------|
|-4-------3-------|---------------------|
|-2-------1-------|-5---------2---------|
|---1-1-1---1-1-1-|-3-1--1-1--0--0--0-0-|
|
|                                   ~~~~~
| E E E E E E E E   E E  E E  E  E  Q
|-----------------|---------------------|
|-----------------|---------------------|
|-----------------|---6----9----12------|
|-------2---5---8-|-----10---11----11---|
|---4---------7---|-7-------------------|
|-0---3---6-------|---------------------|


        PM---|      PM---|           PM---|      PM------|
    E   E  E  E  E  E  E  E       E  E  E  E  E  E  E    E
|------------------------------|---------------------------|
|------------------------------|---------------------------|
|------------------------------|---------------------------|
|---4------------3-------------|---------------------------|
|---2------------1-------------|--5-----------2------------|
|-------1--1--1-----1--1--1----|--3--1--1--1--0--0--0----0-|
|
|~~~~~~                                             ~~~~~
|  +E   E  E  E  E  E  E  S  S    E  E  E  E  E  E  Q
|------------------------------|----18----21----20-20b22---|
|------------------17----20-20-|-------17----20------------|
|------15----18-------17-------|-18------------------------|
|-(11)----17----18-------------|---------------------------|
|------------------------------|---------------------------|
|------------------------------|---------------------------|


         PM------|         PM------|
   E     E  E     E  E     E  E     E
|----------------------------------------|
|----------------------------------------|
|----------------------------------------|
|--4-----------------3-------------------|
|--2-----------------1-------------------|
|--------1--1-----1--------1--1-----1----|
|
|  S  S  E  S  S  E  S  S  E  S  S  S  S
|-20p19p17-19p17h19-20p19p17-19p17h19p17-|
|----------------------------------------|
|----------------------------------------|
|----------------------------------------|
|----------------------------------------|
|----------------------------------------|


        PM---------|         PM------|
   E    E     E     E  E     E  E     E
|--------------------------------------------|
|--------------------------------------------|
|--------------------------------------------|
|--------------------------------------------|
|--5-------------------2---------------------|
|--3----1-----1-----1--0-----0--0-----0------|
|
|  |---3---|
|  E  E    E  S  S  E  S  S  E  S  S  S  S
|--------------------------------------------|
|-20p18p==17h18p17h18-20p18p17h18p17h18p17s==|
|--------------------------------------------|
|--------------------------------------------|
|--------------------------------------------|
|--------------------------------------------|


        PM---------|          PM---------|
   E    E     E    E     E    E     E    E
|---------------------------------------------||
|---------------------------------------------||
|---------------------------------------------||
|--4---------------------3--------------------||
|--2---------------------1--------------------||
|-------1-----1----1----------1-----1----1----||
|
|  |---3---|  |---3---|  |---3---|  |---3---|
|  E  E    E  E  E    E  E  E    E  E  E    E
|---------------------------------------------||
|-15--------------------15--------------------||
|----17p==16h17p16h==17----17p==16h17p16h==17-||
|---------------------------------------------||
|---------------------------------------------||
|---------------------------------------------||


 2/4                      4/4
        PM-----------------------------------------|
   E    E     E    E        S S E S S E  S S E S S E
|-----------------------||---------------------------|
|-----------------------||---------------------------|
|-----------------------||---------------------------|
|-----------------------||---------------------------|
|--5--------------------||---------------------------|
|--3----1-----1----1----||--0-0-0-0-0-0--0-0-0-0-0-0-|
|
|                           ~~~~~~~~~~~~~~~
|  |---3---|  |---3---|
|  E  E    E  E  E    E     H            H
|-----------------------||---------------------------|
|-15---------15---------||-17-----------18-----------|
|----17p==16----17p==16-||---------------------------|
|-----------------------||---------------------------|
|-----------------------||---------------------------|
|-----------------------||---------------------------|


   PM-----------------------------
   S  S E S S  E     S S E S S E
|--------------------------------|
|--------------------------------|
|--------------------------------|
|--------------------------------|
|--------------------------------|
|--0--0-0-0-0--0-----0-0-0-0-0-0-|
|
|  ~~~
|  Q.          S  S  H
|-------------22p18-22-----------|
|-20-----------------------------|
|--------------------------------|
|--------------------------------|
|--------------------------------|
|--------------------------------|


 ----------------------------------------------------------|
   S    S E S S E S S E S S E     S  S E S S E S S E  S  S E
|-----------------------------|------------------------------||
|-----------------------------|------------------------------||
|-----------------------------|------------------------------||
|-----------------------------|------------------------------||
|-----------------------------|------------------------------||
|--0----0-0-0-0-0-0-0-0-7-7-0-|---0--0-0-0-0-0-0-0-0--7--7-0-||
|
|  ~~~~~~~~~~~~~~~~~~~~~~~~~~~~~~~~~~
|  W                             +H.                  Q
|-22b24-----------------------|-(22)-----------------12\-----||
|-----------------------------|----------------------12\-----||
|-----------------------------|------------------------------||
|-----------------------------|------------------------------||
|-----------------------------|------------------------------||
|-----------------------------|------------------------------||


   Interlude
    PM---------------------------------------------------------------------|
    S S S S S S S S S S S S S S S S   S S E S S E S S E S S E  4x Q  Q  Q  Q
||----------------------------------|--------------------------||-------------|
||o---------------------------------|-------------------------o||-------------|
||----------------------------------|--------------------------||-------------|
||----------------------------------|--------------------------||-------------|
||o---------------------------------|-------------------------o||-4--5--3--6--|
||--2-2-2-2-3-3-3-3-1-1-1-1-4-4-4-4-|-0-0-0-0-0-0-0-0-0-0-0-0--||-2--3--1--4--|


  PM--------------------------------|
  Q  Q  Q  Q    Q  Q  Q  Q    Q  Q  Q  Q    E E E E E E E E
|-------------|-------------|-------------|-----------------|
|-------------|-------------|-------------|-----------------|
|-------------|-------------|-------------|-----------------|
|-------------|-------------|----------6--|-----------------|
|-4--5--3--6--|-4--5--3--6--|-4--5--3--6--|-----------------|
|-2--3--1--4--|-2--3--1--4--|-2--3--1--4--|-2-3-1-4-2-3-1-4-|


                      PM----------------------------------------------|
  E E E E E E E E     S S E S S E S S E S S E   S S E S S E S S E S S E   3x
|-----------------||--------------------------|---------------------------||
|-----------------||o-------------------------|--------------------------o||
|-----------------||--------------------------|---------------------------||
|-----------------||--------------------------|---------------------------||
|-----------------||o-------------------------|--------------------------o||
|-2-3-1-4-2-3-1-4-||--0-0-0-0-0-0-0-0-0-0-0-0-|-0-0-0-0-0-0-0-0-0-0-0-0---||


            PM--|           PM|
    Q  Q  E E E E   Q  Q  E E E E
||----------------|----------------||
||o---------------|---------------o||
||----------------|----------------||
||----------------|-------------5--||
||o-5--5--5-------|-5--5--5-----3-o||
||--3--3--3-2-0-2-|-3--3--3-1-0----||


 3rd Verse
                          PM----------------------------------------------|
  W          +W           S S E S S E S S E S S E   S S E S S E S S E S S E
|----------|------------|-------------------------|--------------------------|
|----------|------------|-------------------------|--------------------------|
|----------|------------|-------------------------|--------------------------|
|-2--------|-(2)--------|-------------------------|--------------------------|
|-2--------|-(2)--------|-------------------------|--------------------------|
|-0--------|-(0)--------|-0-0-0-0-0-0-0-0-0-0-0-0-|-0-0-0-0-0-0-0-0-0-0-0-0--|


                       PM-------|                              PM|
  Q       Q        E   E    E    E       Q       Q       E     E  E     E
|-------------------------------------|-----------------------------------|
|-------------------------------------|-----------------------------------|
|-------------------------------------|-----------------------------------|
|-------------------------------------|---------------------------------5-|
|-5-------5--------5------------------|--5-------5-------5--------------3-|
|-3-------3--------3---2----0----2----|--3-------3-------3-----1--0-------|
|
| Gtr II
| PM-----------------------------------------------------------------------
| S S S S S S S S  S S S S  S S  S  S    S S  e  S S  e  S  S  E  S  S  E
|-------------------------------------|-----------------------------------|
|-------------------------------------|-----------------------------------|
|-------------------------------------|-----------------------------------|
|-7p5-----9p5-----10p7-----11p7----12-|-12p9----12p9----13p10----14p11----|
|-----7-7-----8-x------9-x------10----|------11------12-------13-------14-|
|-------------------------------------|-----------------------------------|


                                 PM--------|                                PM|
   Q           Q           E     E    E     E      Q          Q           E E   E   E
|-----------------------------------------------|-------------------------------------|
|-----------------------------------------------|-------------------------------------|
|-----------------------------------------------|-------------------------------------|
|-----------------------------------------------|-----------------------------------5-|
|--5-----------5-----------5--------------------|--5----------5-----------5---------3-|
|--3-----------3-----------3-----2----0-----2---|--3----------3-----------3-1---0-----|
|
|----------------------------------------------------------|              ~~
|  S  S  S  S  S  S  S  S  S  S  S S  S  S  S S    S  S  S S  S  S  S  S  Q    +Q
|-----------------------------------------------|-------------------------------------|
|-----------------------------------------------|-------------------------------------|
|-----------------------------------------------|---------------16----16-18---(18)\---|
|-15p12----15-17p12----12-18p15----x-19p16----x-|-19p16----x-19----19-----------------|
|-------15----------15----------16---------17---|-------17----------------------------|
|-----------------------------------------------|-------------------------------------|


                          PM----------------------------------------------|
  W          +W           S S E S S E S S E S S E   S S E S S E S S E S S E
|----------|------------|-------------------------|--------------------------|
|----------|------------|-------------------------|--------------------------|
|----------|------------|-------------------------|--------------------------|
|-2--------|-(2)--------|-------------------------|--------------------------|
|-2--------|-(2)--------|-------------------------|--------------------------|
|-0--------|-(0)--------|-0-0-0-0-0-0-0-0-0-0-0-0-|-0-0-0-0-0-0-0-0-0-0-0-0--|


                               PM--|                          PM|
   Q            Q         E    E E E    Q          Q     E    E E  E
|------------------------------------|----------------------------------|
|------------------------------------|----------------------------------|
|------------------------------------|----------------------------------|
|------------------------------------|-----------------------------5----|
|--5------------5---------5----------|--5----------5-----5---------3----|
|--3------------3---------3----2-0-2-|--3----------3-----3----1-0-------|
|
| Gtr II
|                         ~~~~~                          ~~~~~
|  E  S      S  S   S  E  H             S  S  Q       E  Q.        S  S
|---------------------12-------------|----------------------------------|
|-----------15-----12----15b17-------|-15p12---------12-----------------|
|-12-14b16=====14r-------------------|-------14b16------14b16-----14p12-|
|------------------------------------|----------------------------------|
|------------------------------------|----------------------------------|
|------------------------------------|----------------------------------|


                       PM--|                    PM|
   Q         Q      E  E E  E    Q     Q     E  E E   E
|-----------------------------|-----------------------------|
|-----------------------------|-----------------------------|
|-----------------------------|-----------------------------|
|-----------------------------|-----------------------5-----|
|--5---------5------5---------|--5-----5-----5--------3-----|
|--3---------3------3--2-0--2-|--3-----3-----3--1-0---------|
|
|                   ~~
|  E  E     +E   E  E  E E  e    e  e  e  e  e  Q    +E
|-----------------------------|----15-----------------------|
|--------------------------15-|-17-------17-----------------|
|------------------12---------|-------16----16-12---(12)b13-|
|-14-12b14r(12)-------14------|-----------------------------|
|---------------14------------|-----------------------------|
|-----------------------------|-----------------------------|


   W                   +W
|--------------------|------------|
|--------------------|------------|
|--------------------|------------|
|--2-----------------|-(2)--------|
|--2-----------------|-(2)--------|
|--0-----------------|-(0)--------|
|
|  ~~~~~~~~~~
|  H     +E   +Q.       W
|--------------------|------------|
|--------------------|------------|
|--------------------|------------|
|-14----(14)-(14)\---|------------|
|--------------------|------------|
|--------------------|------------|


  PM----------------------------------------------|
  S S E S S E S S E S S E   S S E S S E S S E S S E
|-------------------------|----------------------------|
|-------------------------|----------------------------|
|-------------------------|----------------------------|
|-------------------------|----------------------------|
|-------------------------|----------------------------|
|-0-0-0-0-0-0-0-0-0-0-0-0-|-0-0-0-0-0-0-0-0-0-0-0-0----|
|
|                                             |--3---|
| W                         H           Q     Q      E
|-------------------------|-------------------------12-|
|-------------------------|----------------------------|
|-------------------------|----------------------------|
|-------------------------|----------------------------|
|-------------------------|----------------------------|
|-------------------------|----------------------------|


                             PM------|                               PM---|
   Q           Q          E  E  E     E       Q      Q         E     E     E     E
|------------------------------------------|------------------------------------------|
|------------------------------------------|------------------------------------------|
|------------------------------------------|------------------------------------------|
|------------------------------------------|-------------------------------------5----|
|--5-----------5----------5----------------|--5------5---------5-----------------3----|
|--3-----------3----------3--2--0-----2----|--3------3---------3-----1-----0----------|
|
|  S  S  S  S  S  S  S  S E  E  S  S  S  S    Q      E     E   E     S  S  S  S  S  S
|-15p14-12-12-14p12----12------------------|------------------------------------------|
|-------------------15------12-14p12-------|------------------------12-15-12-14-12-15p|
|------------------------------------14-12-|-14b16--14b17-(0)-14b16-------------------|
|------------------------------------------|------------------------------------------|
|------------------------------------------|------------------------------------------|
|------------------------------------------|------------------------------------------|


                              PM---------|                                  PM---|
   Q           Q        E     E     E     E       Q           Q        E    E     E  E
|----------------------------------------------|------------------------------------------|
|----------------------------------------------|------------------------------------------|
|----------------------------------------------|------------------------------------------|
|----------------------------------------------|-------------------------------------5----|
|--5-----------5--------5----------------------|--5-----------5--------5-------------3----|
|--3-----------3--------3-----2-----0-----2----|--3-----------3--------3----1-----0-------|
|
|                                                                      |---3---|
|  S  S  S  S  S  S  E  S  S  S  S  S  S  S  S    S  S  S  S  S  E  S  E  E    E  E  E
|----------------------------------------------|------------------------------------------|
|-12----12----------12-16p12h15p12----12-------|------------------------------------------|
|----14----14-12-14----------------14----14----|-12----12-14-12---------------------------|
|-------------------------------------------16-|----14----------14-12-14-12---------10----|
|----------------------------------------------|------------------------------14s12-------|
|----------------------------------------------|------------------------------------------|


   W                +W
|-----------------|------------|
|-----------------|------------|
|-----------------|------------|
|--2--------------|-(2)--------|
|--2--------------|-(2)--------|
|--0--------------|-(0)--------|
|
|  ~~
|  Q   +Q    H       W
|-----------------|------------|
|-----------------|------------|
|-----------------|------------|
|-----------------|------------|
|-----------------|------------|
|-12--(12)\-------|------------|


  PM------------------------------------------------|
  S S E S S E S S E S S E   S S E S S E S S  E  S S  E
|-------------------------|-----------------------------|
|-------------------------|-----------------------------|
|-------------------------|-----------------------------|
|-------------------------|-----------------------------|
|-------------------------|-----------------------------|
|-0-0-0-0-0-0-0-0-0-0-0-0-|-0-0-0-0-0-0-0-0--0--0-0--0--|
|
| H           E   E Q       H           E    E  E    E
|-------------------------|-----------------------------|
|-------------------------|-----------------------------|
|-------------------------|-----------------------------|
|-------------------------|-----------------------------|
|-------------x---x-------|-----------------13-12---11--|
|-------------x---x-------|-----------------------------|


                        PM------|                                           PM|
   Q          Q       E E     E  E            Q            Q            E   E E  E
|-----------------------------------------|-----------------------------------------|
|-----------------------------------------|-----------------------------------------|
|-----------------------------------------|-----------------------------------------|
|-----------------------------------------|--------------------------------------5--|
|--5----------5-------5-------------------|---5------------5------------5--------3--|
|--3----------3-------3-2-----0--2--------|---3------------3------------3---1-0-----|
|
|  \1.5____/                        \0.5______/    \0.5____/    \0.5____/
|  E      +Q     +E   E.   S  E  S  S        +E   +E      +E   +E      +Q.       E
|-----------------------------------------|-----------------------------------------|
|-15-----(15)---(15)-15p==12h15p12-12-----|-(12)-(12)----(12)-(12)----(12)\---------|
|-----------------------------------------|-------------------------------------(7)s|
|-----------------------------------------|-----------------------------------------|
|-----------------------------------------|-----------------------------------------|
|-----------------------------------------|-----------------------------------------|


                          D.S.S. al Dbl. Coda
             PM--|                       PM|
   Q  Q   E  E E E   Q       Q       E   E E E
|------------------|----------------------------||
|------------------|----------------------------||
|------------------|----------------------------||
|------------------|-------------------------5--||
|--5--5---5--------|-5-------5-------5-------3--||
|--3--3---3--2-0-2-|-3-------3-------3---1-0----||
|
|                    \0.25/  \0.25/
|  Q  Q  +Q.     E   Q       Q       S S E E E
|------------------|----------------------------||
|------------------|----------------------------||
|-11--9--(9)-------|-7p======4------------------||
|----------------9-|-----------------7-7-5-7s9--||
|------------------|----------------------------||
|------------------|----------------------------||


  &&
      PM----|         PM------|                         PM------|
  E E E E E E E E   E E E E E E E E   E E E E E E E E   E E E E E E E E
|-----------------|-----------------|-----------------|-----------------|
|-----------------|-----------------|-----------------|-----------------|
|-----------------|-----------------|-----------------|-----------------|
|-----------------|-----------------|-----------------|-3-3-3-3-3-3-----|
|-------------1s2-|---0-0-0-0-0-1s2-|-----1s2-----1s2-|-1-1-1-1-1-1-1s2-|
|-3p0-0-0-0-0-----|-3---------------|-3p0-----3p0-----|-----------------|


 Out-Solo
                   PM--------------|                      PM--------------------------|
   E     E         E   E         E  E    E  E       E     E         E      E       E  E E E
|------------------------------------------------|------------------------------------------|
|------------------------------------------------|------------------------------------------|
|------------------------------------------------|------------------------------------------|
|------------------------------------------------|------------------------------------------|
|----------------------------------------1s=2----|--------0---------0------0-------0--0-1s2-|
|--3p====0---------0---0---------0--0------------|--3---------------------------------------|
|
| Gtr II
|                                   ~~~~~~~~                                       ~~~~~
|  E     S  S     +E   S      S  E  E   +E.    S    E     S  S     +S   S  E      +H
|-------15----------------------15------------15-|-------15------------15-------------------|
|-15b17----15b17-(15)-15b17==15----15r-(15)------|-15b17----15b17-(15)----15b17==(15)r======|
|------------------------------------------------|------------------------------------------|
|------------------------------------------------|------------------------------------------|
|------------------------------------------------|------------------------------------------|
|------------------------------------------------|------------------------------------------|


                                 PM---------------|
    E   E  E     E  E  E  E E    E     E     E  E  E E   E   E
|-----------------------------|----------------------------------|
|-----------------------------|----------------------------------|
|-----------------------------|----------------------------------|
|-----------------------------|--3-----3-----3--3--3-3-----------|
|----------1s====2--------1s2-|--1-----1-----1--1--1-1---1s==2---|
|---3p==0-----------3p=0------|----------------------------------|
|
|                         ~~~                      ~~
|  +E   E  E     E  E  E  Q      S  S  S  S  E  E  Q    +Q
|-----------------------------|----------------------------------|
|-(15)-12-------12------------|----14p12-------------------------|
|---------14b16----14-12-14---|-12----------12-------------------|
|-----------------------------|----------14----14-14---(14)\-----|
|-----------------------------|----------------------------------|
|-----------------------------|----------------------------------|


        PM-----------|             PM------------|
  E  E  E  E   E     E E E     E   E     E  E  E  E     E  E
|--------------------------|------------------------------------|
|--------------------------|------------------------------------|
|--------------------------|------------------------------------|
|--------------------------|------------------------------------|
|----------------------1s2-|-------0-----0--0--0--0-----1s=2----|
|-3p=0--0--0---0-----0-----|---3--------------------------------|
|
|                                              ~~~~~
| E  E  E  E  +H              +E   S  S  E  E  E  S  S  E  S  S
|--------------------------|------------------------------------|
|--------------------------|------------------------------------|
|--------------------------|------------------------------------|
|------12-14-(14)b16r======|=(14)-14p12----------------12-------|
|---14---------------------|------------14-12-14-14-15----14h15p|
|--------------------------|------------------------------------|


                                 PM-----------|
   E  E     E  E  E  E   E  E    E  E  E    E  E E E E
|-----------------------------|------------------------||
|-----------------------------|------------------------||
|-----------------------------|------------------------||
|-----------------------------|--3--3--3----3--3-3-----||
|-----------1s=2---------1s=2-|--1--1--1----1--1-1-1s2-||
|--3p=0-----------3p=0--------|------------------------||
|
|                                              ~~
|  E  S  S  E  E  E  E   E  E    E  E  Q       H
|-----------------------------|------------------------||
|-----------------------------|------------------------||
|-----------------------14-14-|-11-14s21b23---21-------||
|----------12----12-14/-------|------------------------||
|-14-12h14----14--------------|------------------------||
|-----------------------------|------------------------||


   Outro
    Q  Q  Q  Q    E E Q  E E Q   3x Q  Q  Q  Q    E E Q  E Q  E
||--------------|----------------||-------------|----------------*|
||o-------------|---------------o||-------------|----------------*|
||--------------|----------------||-------------|----------------*|
||--------4--3--|----------------||-------4--3--|-2-4------------*|
||o-2--4--2--1--|-2-4----2-4----o||-2--4--2--1--|-2-4----2-4S=3--*|
||--0--2--------|-0-2----0-2-----||-0--2--------|-0-2----0-2S=1--*|



Duration Legend
---------------
W - whole; H - half; Q - quarter; E - 8th; S - 16th; T - 32nd; X - 64th; a - acciaccatura
+ - note tied to previous; . - note dotted; .. - note double dotted
Uncapitalized letters represent notes that are staccato (1/2 duration)
Irregular groupings are notated above the duration line
Duration letters will always appear directly above the note/fret number it represents the
duration for.  Duration letters with no fret number below them represent rests.  Multi-
bar rests are notated in the form Wxn, where n is the number of bars to rest for.  Low
melody durations appear below the staff

Tablature Legend
----------------
 h   - hammer-on
 p   - pull-off
 b   - bend
 pb  - pre-bend
 r   - bend release (if no number after the r, then release immediately)
 /\  - slide into or out of (from/to "nowhere")
 s   - legato slide
 S   - shift slide
 - natural harmonic
[n]  - artificial harmonic
n(n) - tapped harmonic
 ~   - vibrato
 tr  - trill
 T   - tap
 TP  - trem. picking
 PM  - palm muting
\n/  - tremolo bar dip; n = amount to dip
 \n  - tremolo bar down
 n/  - tremolo bar up
/n\  - tremolo bar inverted dip
 =   - hold bend; also acts as connecting device for hammers/pulls
 <> - volume swell (louder/softer)
 x   - on rhythm slash represents muted slash
 o   - on rhythm slash represents single note slash

Misc Legend
-----------
 |  - bar
||  - double bar
||o - repeat start
o|| - repeat end
*|  - double bar (ending)
 :  - bar (freetime)
 $  - Segno
 &  - Coda
Tempo markers -  = BPM(8/16=s8/s16), where s8 = swing 8ths, s16 = swing 16ths

Tap to rate this tab
# A B C D E F G H I J K L M N O P Q R S T U V W X Y Z