Song name
# A B C D E F G H I J K L M N O P Q R S T U V W X Y Z

Anthrax - Who Cares Wins tab

Help us improve GuitareTab! Take a short survey!
This song is awesome. Why hasn't anyone tabbed it out? This IS NOT 100% accurate but 
give you an idea of the song and maybe you can tab the song out yourself - STANDRAD TUNING

Who Cares Wins
Anthrax

INTRO:
-----------------------------0-------------------------------------0----------|
--------------------------------3--0----------------------------------3--0----|
------------3--------------------------------------3--------------------------|
---------2---------------2----------------------2--------------2--------------|
------2---------------2----------------------2--------------2-----------------|
---0---------------0----------------------0--------------0--------------------|


--------------------------0---------------------------------------0-----------|
----------------------------3-0--------------------------------------3--0-----|
---------3-----------------------------------3--------------------------------|
------2-------------2---------------------2-------------------2---------------|
----2------------2---------------------2-------------------2------------------|
--0-----------0---------------------0-------------------0---------------------|

I'm pretty sure the second guitar just plays this:
-------------------------------------------------------------------------------|
-------------------------------------------------------------------------------|
-------------------------------------------------------------------------------|
-------------------------------------------------------------------------------|
-------------------------------------------------------------------------------|
--0-0-0-0-0-0-0-0-0-0-0-0-0-0-0-0-0-0-0-0-0-0-0-0-0-0-0-0-0-0-0-0-0-0-0-0-0-0--|
                            |----all palm muted--------------------------------|

during the palm muting im pretty sure he plays a slightly different riff to the intro 
goes something like this:
------------------------------------------------------------------------------|
-------------------------------------0----------------------------0-----3-----|
------------0--3--0---------------0-----3---------------0--3--0-----3-----3---|
---------2----------2---------2------------2---------2----------2-----2-----2-|
------2-------------------2------------------------2--------------------------|
---0-------------------0-------------------------0----------------------------|


------------------------------------------------------------------------------|
-------------------------------------0----------------------------0-----3-----|
------------0--3--0---------------0-----3---------------0--3--0-----3-----3---|
---------2----------2---------2------------2---------2----------2-----2-----2-|
------2-------------------2------------------------2--------------------------|
---0-------------------0-------------------------0----------------------------|

then, I'm pretty sure it goes on like this: (alsp play a couple of E5 chords in background)
--------------------------0---------------------------------------------------------|
------------------0----------3--0----------------------0----------------------------|
------------3-------3---------------3--------------3-------3----------------(0)-----|
---------2--------------------------------------2-----------------2------2------(2)-|
------2--------------------------------------2------------------2------2------------|
---0--------------------------------------0-------------------0------3--------------|

--------------------------0---------------------------------------------------------|
------------------0----------3--0----------------------0----------------------------|
------------3-------3---------------3--------------3-------3----------------(0)-----|
---------2--------------------------------------2-----------------2------2------(2)-|
------2--------------------------------------2------------------2------2------------|
---0--------------------------------------0-------------------0------3--------------|

--------------------------0---------------------------------------------------------|
------------------0----------3--0----------------------0----------------------------|
------------3-------3---------------3--------------3-------3----------------(0)-----|
---------2--------------------------------------2-----------------2------2------(2)-|
------2--------------------------------------2------------------2------2------------|
---0--------------------------------------0-------------------0------3--------------|

--------------------------0---------------------------------------------------------|
------------------0----------3--0----------------------0----------------------------|
------------3-------3---------------3--------------3-------3----------------(0)-----|
---------2--------------------------------------2-----------------2------2------(2)-|
------2--------------------------------------2------------------2------2------------|
---0--------------------------------------0-------------------0------3--------------|

Then this part takes over:
--------------------------------------------------------------------------------|
--------------------------------------------------------------------------------|
--------------------------------------------------------------------------------|
--------------------------------------------------------------------------------|
----2-2-2-2-2-2-2-2-2-2-2-2-2-2-2-2-2-2-2-2-2-2-2-2-2-2-2-2-2-2-2-2-2-2-2-2-2-2-|
----0-0-0-0-0-0-0-0-0-0-0-0-0-0-0-0-0-0-0-0-0-0-0-0-0-0-0-0-0-0-0-0-0-0-0-0-0-0-|


and this part is played in the background:
------------------------------------------------------------------------------|
-------------------------------------0----------------------------0-----3-----|
------------0--3--0---------------0-----3---------------0--3--0-----3-----3---|
---------2--------------------2------------2---------2----------------2-----2-|
------2-------------------2------------------------2--------------------------|
---0-------------------0-------------------------0----------------------------|

------------------------------------------------------------------------------|
-------------------------------------0----------------------------0-----3-----|
------------0--3--0---------------0-----3---------------0--3--0-----3-----3---|
---------2--------------------2------------2---------2----------------2-----2-|
------2-------------------2------------------------2--------------------------|
---0-------------------0-------------------------0----------------------------|


--------------------------------------------------------------------------------|
--------------------------------------------------------------------------------|
--------------------------------------------------------------------------------|
--------------------------------------------------------------------------------|
--2~~~~~~~~~~~~~~~~~~~~~~-------------------------------------------------------|
--0~~~~~~~~~~~~~~~~~~~~~~-------------------------------------------------------|

at 1:20 play:
--------------------------------------------------------------------------------|
--------------------------------------------------------------------------------|
--------------------------------------------------------------------------------|
----------2--2--2-----------2--2--2------------2--2--2--------------2--2--2-----|
---/2-----------------2----------------2---------------------2------------------|
---/0-----------------0----------------0---------------------0------------------|

--------------------------------------------------------------------------------|
--------------------------------------------------------------------------------|
--------------------------------------------------------------------------------|
---------1--1--1-------------1--1--1------------1--1--1--------------1--1--1~---|
----2------------------2-----------------2-------------------2------------------|
----0------------------0-----------------0-------------------0------------------|

the next riff i think goes like this:(I'm probably wrong)
--------------------------------------------------------------------------------|
--------------------------------------------------------------------------------|
--------------------------------------------------------------------------------|
--------------------------------------------------------------------------------|
--3---------------------------2--2----3-----------------------------------------|
--1----1-0-1-0-1-0-1-0-1-0----0--0----1----1-0-1-0-1-0-1-0-1-0------------------|


--------------------------------------------------------------------------------|
--------------------------------------------------------------------------------|
--------------------------------------------------------------------------------|
--------------------------------------------------------------------------------|
---2--2---3--------------------------2--2----3----------------------------------|
---0--0---1--1-0-1-0-1-0-1-0-1-0-----0--0----1---1-0-1-0-1-0-1-0-1-0------------|

Thehn it changes a little bit to this:
--------------------------------------------------------------------------------|
--------------------------------------------------------------------------------|
--------------------------------------------------------------------------------|
--------------------------------------------3-----------------------------------|
---2--2----3-------------------------2--2---1-----------------------------------|
---0--0----1--1-0-1-0-1-0-1-0-1-0----0--0-------1-0-1-0-1-0-1-0-1-0-------------|


--------------------------------------------------------------------------------|
--------------------------------------------------------------------------------|
--------------------------------------------------------------------------------|
-----------4--------------------------------5-----------------------------------|
---2--2----2-------------------------2--2---3-----------------------------------|
---0--0-------1-0-1-0-1-0-1-0-1-0----0--0--------1-0-1-0-1-0-1-0-1-0------------|

--------------------------------------------------------------------------------|
--------------------------------------------------------------------------------|
--------------------------------------------------------------------------------|
--------------------------------------------3-----------------------------------|
---2--2----3-------------------------2--2---1-----------------------------------|
---0--0----1--1-0-1-0-1-0-1-0-1-0----0--0-------1-0-1-0-1-0-1-0-1-0-------------|


--------------------------------------------------------------------------------|
--------------------------------------------------------------------------------|
--------------------------------------------------------------------------------|
-----------4--------------------------------5-----------------------------------|
---2--2----2-------------------------2--2---3--------------------------2--2-----|
---0--0-------1-0-1-0-1-0-1-0-1-0----0--0--------1-0-1-0-1-0-1-0-1-0---0--0-----|

This is the main riff:
--------------------------------------------------------------------------------|
--------------------------------------------------------------------------------|
--------------------------------------------------------------------------------|
------------------4----------3---------2--------------------4-------3------2----|
----2--------5----2----------1---------0-------2--------5---2-------1------0----|
----0--------3---------------------------------0--------3-----------------------|

then it goes back to the other riff for the verse,
VERSE:
--------------------------------------------------------------------------------|
--------------------------------------------------------------------------------|
--------------------------------------------------------------------------------|
--------------------------------------------3-----------------------------------|
---2--2----3-------------------------2--2---1-----------------------------------|
---0--0----1--1-0-1-0-1-0-1-0-1-0----0--0-------1-0-1-0-1-0-1-0-1-0-------------|


--------------------------------------------------------------------------------|
--------------------------------------------------------------------------------|
--------------------------------------------------------------------------------|
-----------4--------------------------------5-----------------------------------|
---2--2----2-------------------------2--2---3-----------------------------------|
---0--0-------1-0-1-0-1-0-1-0-1-0----0--0--------1-0-1-0-1-0-1-0-1-0------------|

--------------------------------------------------------------------------------|
--------------------------------------------------------------------------------|
--------------------------------------------------------------------------------|
--------------------------------------------3-----------------------------------|
---2--2----3-------------------------2--2---1-----------------------------------|
---0--0----1--1-0-1-0-1-0-1-0-1-0----0--0-------1-0-1-0-1-0-1-0-1-0-------------|


--------------------------------------------------------------------------------|
--------------------------------------------------------------------------------|
--------------------------------------------------------------------------------|
-----------4--------------------------------5-----------------------------------|
---2--2----2-------------------------2--2---3--------------------------2--2-----|
---0--0-------1-0-1-0-1-0-1-0-1-0----0--0--------1-0-1-0-1-0-1-0-1-0---0--0-----|

CHROUS:
--------------------------------------------------------------------------------|
--------------------------------------------------------------------------------|
--------------------------------------------------------------------------------|
------------------4----------3---------2--------------------4-------3------2----|
----2--------5----2----------1---------0-------2--------5---2-------1------0----|
----0--------3---------------------------------0--------3-----------------------|
    I        Can--t         see       you      I        can--t     hear   you

--------------------------------------------------------------------------------|
--------------------------------------------------------------------------------|
--------------------------------------------------------------------------------|
---------------------------4-------3-----2----------------4-------3------2------|
----------------2------5---2-------1-----0-----2------5---2-------1------0------|
-1-0-1-0-1-0----0------3-----------------------0------3-------------------------|
               You     Don't      see    me   You     couldn't    Be    Me

------------------------------------------------------------------------------------|
------------------------------------------------------------------------------------|
------------------------------------------------------------------------------------|
------------------------------------------------------------------------------------|
-------------5-----------4----------------2-----------------------------------------|
-------------3-----------2----------------0-----------------------------------------|
            WHO        CARES            WINS

--------------------------------------------------------------------------------|
--------------------------------------------------------------------------------|
--------------------------------------------------------------------------------|
--------------------------------------------------------------------------------|
------9---8---7---X---9---8---7------9---8---7---X---9---8---7------------------|
------7---6---5---X---7---6---5------7---6---5---X---7---6---5------------------|

This is the "There but for the grace of God" Part: (I am not sure if that's even close 
the real thing) It could also just be played on bass, otherwise palm mute it
--------------------------------------------------------------------------------|
--------------------------------------------------------------------------------|
--------------------------------------------------------------------------------|
--------------------------------------------------------------------------------|
----5----4----3----5----4----3----5----4----3----5----4----3--------------------|
----3----2----1----3----2----1----3----2----1----3----2----1--------------------|

then, "Who Cares" again:
--------------------------------------------------------------------------------|
--------------------------------------------------------------------------------|
--------------------------------------------------------------------------------|
--------------------------------------------------------------------------------|
------9---8---7---X---9---8---7------9---8---7---X---9---8---7------------------|
------7---6---5---X---7---6---5------7---6---5---X---7---6---5------------------|

--------------------------------------------------------------------------------|
--------------------------------------------------------------------------------|
--------------------------------------------------------------------------------|
--------------------------------------------------------------------------------|
----5----4----3----5----4----3----5----4----3----5----4----3--------------------|
----3----2----1----3----2----1----3----2----1----3----2----1--------------------|

CHROUS:
--------------------------------------------------------------------------------|
--------------------------------------------------------------------------------|
--------------------------------------------------------------------------------|
------------------4----------3---------2--------------------4-------3------2----|
----2--------5----2----------1---------0-------2--------5---2-------1------0----|
----0--------3---------------------------------0--------3-----------------------|
   Go       you   or         I.........i       O........pen your   Eye.....s

--------------------------------------------------------------------------------|
--------------------------------------------------------------------------------|
--------------------------------------------------------------------------------|
---------------------------4-------3-----2----------------4-------3------2------|
----------------2------5---2-------1-----0-----2------5---2-------1------0------|
-1-0-1-0-1-0----0------3-----------------------0------3-------------------------|
               You     Don't      see    me   You     couldn't    Be    Me

VERSE:
--------------------------------------------------------------------------------|
--------------------------------------------------------------------------------|
--------------------------------------------------------------------------------|
--------------------------------------------3-----------------------------------|
---2--2----3-------------------------2--2---1-----------------------------------|
---0--0----1--1-0-1-0-1-0-1-0-1-0----0--0-------1-0-1-0-1-0-1-0-1-0-------------|


--------------------------------------------------------------------------------|
--------------------------------------------------------------------------------|
--------------------------------------------------------------------------------|
-----------4--------------------------------5-----------------------------------|
---2--2----2-------------------------2--2---3-----------------------------------|
---0--0-------1-0-1-0-1-0-1-0-1-0----0--0--------1-0-1-0-1-0-1-0-1-0------------|


--------------------------------------------------------------------------------|
--------------------------------------------------------------------------------|
--------------------------------------------------------------------------------|
--------------------------------------------3-----------------------------------|
---2--2----3-------------------------2--2---1-----------------------------------|
---0--0----1--1-0-1-0-1-0-1-0-1-0----0--0-------1-0-1-0-1-0-1-0-1-0-------------|


--------------------------------------------------------------------------------|
--------------------------------------------------------------------------------|
--------------------------------------------------------------------------------|
-----------4--------------------------------5-----------------------------------|
---2--2----2-------------------------2--2---3--------------------------2--2-----|
---0--0-------1-0-1-0-1-0-1-0-1-0----0--0--------1-0-1-0-1-0-1-0-1-0---0--0-----|

CHROUS:
--------------------------------------------------------------------------------|
--------------------------------------------------------------------------------|
--------------------------------------------------------------------------------|
------------------4----------3---------2--------------------4-------3------2----|
----2--------5----2----------1---------0-------2--------5---2-------1------0----|
----0--------3---------------------------------0--------3-----------------------|
    I        Can--t         see       you      I        can--t     hear   you

--------------------------------------------------------------------------------|
--------------------------------------------------------------------------------|
--------------------------------------------------------------------------------|
---------------------------4-------3-----2----------------4-------3------2------|
----------------2------5---2-------1-----0-----2------5---2-------1------0------|
-1-0-1-0-1-0----0------3-----------------------0------3-------------------------|
               You     Don't      see    me   You     couldn't    Be    Me

------------------------------------------------------------------------------------|
------------------------------------------------------------------------------------|
------------------------------------------------------------------------------------|
------------------------------------------------------------------------------------|
-------------5-----------4----------------2-----------------------------------------|
-------------3-----------2----------------0-----------------------------------------|
            WHO        CARES            WINS

--------------------------------------------------------------------------------|
--------------------------------------------------------------------------------|
--------------------------------------------------------------------------------|
--------------------------------------------------------------------------------|
------9---8---7---X---9---8---7------9---8---7---X---9---8---7------------------|
------7---6---5---X---7---6---5------7---6---5---X---7---6---5------------------|

--------------------------------------------------------------------------------|
--------------------------------------------------------------------------------|
--------------------------------------------------------------------------------|
--------------------------------------------------------------------------------|
----5----4----3----5----4----3----5----4----3----5----4----3--------------------|
----3----2----1----3----2----1----3----2----1----3----2----1--------------------|

--------------------------------------------------------------------------------|
--------------------------------------------------------------------------------|
--------------------------------------------------------------------------------|
--------------------------------------------------------------------------------|
------9---8---7---X---9---8---7------9---8---7---X---9---8---7------------------|
------7---6---5---X---7---6---5------7---6---5---X---7---6---5------------------|

--------------------------------------------------------------------------------|
--------------------------------------------------------------------------------|
--------------------------------------------------------------------------------|
--------------------------------------------------------------------------------|
----5----4----3----5----4----3----5----4----3----5----4----3--------------------|
----3----2----1----3----2----1----3----2----1----3----2----1--------------------|

CHROUS:
--------------------------------------------------------------------------------|
--------------------------------------------------------------------------------|
--------------------------------------------------------------------------------|
------------------4----------3---------2--------------------4-------3------2----|
----2--------5----2----------1---------0-------2--------5---2-------1------0----|
----0--------3---------------------------------0--------3-----------------------|
   Go       you   or         I.........i       O........pen your   Eye.....s

--------------------------------------------------------------------------------|
--------------------------------------------------------------------------------|
--------------------------------------------------------------------------------|
---------------------------4-------3-----2----------------4-------3------2------|
----------------2------5---2-------1-----0-----2------5---2-------1------0------|
-1-0-1-0-1-0----0------3-----------------------0------3-------------------------|
               You     Don't      see    me   You     couldn't    Be    Me

------------------------------------------------------------------------------------|
------------------------------------------------------------------------------------|
------------------------------------------------------------------------------------|
------------------------------------------------------------------------------------|
-------------5-----------4----------------2-----------------------------------------|
-------------3-----------2----------------0-----------------------------------------|
            WHO        CARES            WINS
--------------------------------------------------------------------------------|
--------------------------------------------------------------------------------|
--------------------------------------------------------------------------------|
--------------------------------------------------------------------------------|
------9---8---7---X---9---8---7------9---8---7---X---9---8---7------------------|
------7---6---5---X---7---6---5------7---6---5---X---7---6---5------------------|


--------------------------------------------------------------------------------|
--------------------------------------------------------------------------------|
--------------------------------------------------------------------------------|
--------------------------------------------------------------------------------|
------9---8---7---X---9---8---7------9---8---7---X---9---8---7------------------|
------7---6---5---X---7---6---5------7---6---5---X---7---6---5------------------|

Don't have the solo and too hard for me to tab out. All I know is that it's sik

After the solo comes to earlier riff with some kind of lead played on top of it, I 
hear it well enough to tab it out so just play this riff:
VERSE:
--------------------------------------------------------------------------------|
--------------------------------------------------------------------------------|
--------------------------------------------------------------------------------|
--------------------------------------------------------------------------------|
--3---------------------------2--2----3-----------------------------------------|
--1----1-0-1-0-1-0-1-0-1-0----0--0----1----1-0-1-0-1-0-1-0-1-0------------------|

--------------------------------------------------------------------------------|
--------------------------------------------------------------------------------|
--------------------------------------------------------------------------------|
--------------------------------------------3-----------------------------------|
---2--2----3-------------------------2--2---1-----------------------------------|
---0--0----1--1-0-1-0-1-0-1-0-1-0----0--0-------1-0-1-0-1-0-1-0-1-0-------------|


--------------------------------------------------------------------------------|
--------------------------------------------------------------------------------|
--------------------------------------------------------------------------------|
-----------4--------------------------------5-----------------------------------|
---2--2----2-------------------------2--2---3-----------------------------------|
---0--0-------1-0-1-0-1-0-1-0-1-0----0--0--------1-0-1-0-1-0-1-0-1-0------------|

--------------------------------------------------------------------------------|
--------------------------------------------------------------------------------|
--------------------------------------------------------------------------------|
--------------------------------------------3-----------------------------------|
---2--2----3-------------------------2--2---1-----------------------------------|
---0--0----1--1-0-1-0-1-0-1-0-1-0----0--0-------1-0-1-0-1-0-1-0-1-0-------------|


--------------------------------------------------------------------------------|
--------------------------------------------------------------------------------|
--------------------------------------------------------------------------------|
-----------4--------------------------------5-----------------------------------|
---2--2----2-------------------------2--2---3--------------------------2--2-----|
---0--0-------1-0-1-0-1-0-1-0-1-0----0--0--------1-0-1-0-1-0-1-0-1-0---0--0-----|

CHROUS:
--------------------------------------------------------------------------------|
--------------------------------------------------------------------------------|
--------------------------------------------------------------------------------|
------------------4----------3---------2--------------------4-------3------2----|
----2--------5----2----------1---------0-------2--------5---2-------1------0----|
----0--------3---------------------------------0--------3-----------------------|
    I        Can--t         see       you      I        can--t     hear   you

--------------------------------------------------------------------------------|
--------------------------------------------------------------------------------|
--------------------------------------------------------------------------------|
---------------------------4-------3-----2----------------4-------3------2------|
----------------2------5---2-------1-----0-----2------5---2-------1------0------|
----------------0------3-----------------------0------3-------------------------|
               You     Don't      see    me   You     couldn't    Be    Me

------------------------------------------------------------------------------------|
------------------------------------------------------------------------------------|
------------------------------------------------------------------------------------|
------------------------------------------------------------------------------------|
-------------5-----------4----------------2-----------------------------------------|
-------------3-----------2----------------0-----------------------------------------|
            WHO        CARES            WINS

--------------------------------------------------------------------------------|
--------------------------------------------------------------------------------|
--------------------------------------------------------------------------------|
--------------------------------------------------------------------------------|
------9---8---7---X---9---8---7------9---8---7---X---9---8---7------------------|
------7---6---5---X---7---6---5------7---6---5---X---7---6---5------------------|

--------------------------------------------------------------------------------|
--------------------------------------------------------------------------------|
--------------------------------------------------------------------------------|
--------------------------------------------------------------------------------|
----5----4----3----5----4----3----5----4----3----5----4----3--------------------|
----3----2----1----3----2----1----3----2----1----3----2----1--------------------|

--------------------------------------------------------------------------------|
--------------------------------------------------------------------------------|
--------------------------------------------------------------------------------|
--------------------------------------------------------------------------------|
------9---8---7---X---9---8---7------9---8---7---X---9---8---7------------------|
------7---6---5---X---7---6---5------7---6---5---X---7---6---5------------------|

--------------------------------------------------------------------------------|
--------------------------------------------------------------------------------|
--------------------------------------------------------------------------------|
--------------------------------------------------------------------------------|
----5----4----3----5----4----3----5----4----3----5----4----3--------------------|
----3----2----1----3----2----1----3----2----1----3----2----1--------------------|

CHROUS:
--------------------------------------------------------------------------------|
--------------------------------------------------------------------------------|
--------------------------------------------------------------------------------|
------------------4----------3---------2--------------------4-------3------2----|
----2--------5----2----------1---------0-------2--------5---2-------1------0----|
----0--------3---------------------------------0--------3-----------------------|
   Go       you   or         I.........i       O........pen your   Eye.....s

--------------------------------------------------------------------------------|
--------------------------------------------------------------------------------|
--------------------------------------------------------------------------------|
---------------------------4-------3-----2----------------4-------3------2------|
----------------2------5---2-------1-----0-----2------5---2-------1------0------|
----------------0------3-----------------------0------3-------------------------|
               You     Don't      see    me   You     couldn't    Be    Me

--------------------------------------------------------------------------------|
--------------------------------------------------------------------------------|
--------------------------------------------------------------------------------|
----------2--2--2-----------2--2--2------------2--2--2--------------2--2--2-----|
----2-----------------2----------------2---------------------2------------------|
----0-----------------0----------------0---------------------0------------------|

--------------------------------------------------------------------------------|
--------------------------------------------------------------------------------|
--------------------------------------------------------------------------------|
----------2--2--2-----------2--2--2------------2--2--2--------------2--2--2-----|
----2-----------------2----------------2---------------------2------------------|
----0-----------------0----------------0---------------------0------------------|

keep playing the riff below and fade out i guess...
--------------------------------------------------------------------------------|
--------------------------------------------------------------------------------|
--------------------------------------------------------------------------------|
---------1--1--1-------------1--1--1------------1--1--1--------------1--1--1~---|
----2------------------2-----------------2-------------------2------------------|
----0------------------0-----------------0-------------------0------------------|

that's pretty much all I'm capable of tabbing out, don't forget the "There but for the 
of God" bit could be just on bass although I'm pretty sure it's palm muted, besides that 
hope the tab helped you in any way.
Vote and Comment
Related for Who Cares Wins tab