Song name
# A B C D E F G H I J K L M N O P Q R S T U V W X Y Z

Anti-flag - No Warning tab

- Anti-Flag - No Warning
- Tabbed by: Pacu, bassist from a brazilian punk rock band called PunkAss.
- Easy. Enjoy it.

Intro
G|--------6~-|----------|
D|-----------|----------|
A|-4~--------|----------|
E|-----------|-00-00000-|

Chorus
G|---------------------|---------------------|-----------------|
D|---------------------|---------------------|-----------------|
A|-4444-7777-----------|-4444-7777------9999-|-----------------|
E|-----------7777-2222-|-----------7777------|-55555555-0000-7-|

Verse [4x]
G|----------------------------|
D|--6646--664-----4--6644-----|
A|-4-----4---7-477-77----7766-|
E|----------------------------|

Pre-chorus [3x]
G|-----------------|
D|-----------------|
A|-----4h54--7777--|
E|-5555----5-----7-|

Chorus
G|---------------------|---------------------|------|-----------------|
D|---------------------|---------------------|------|-----------------|
A|-4444-7777-----------|-4444-7777------9999-|-[2x]-|-----------------|
E|-----------7777-2222-|-----------7777------|------|-55555555-0000-7-|

Verse – No Bass [2x]

Verse [2x]
G|----------------------------|
D|--6646--664-----4--6644-----|
A|-4-----4---7-477-77----7766-|
E|----------------------------|

Pre-chorus [3x]
G|-----------------|
D|-----------------|
A|-----4h54--7777--|
E|-5555----5-----7-|

Weird Part – The bas can be with some distorction

Chorus
G|---------------------|---------------------|------|----------------|
D|---------------------|---------------------|------|----------------|
A|-4444-7777-----------|-4444-7777------9999-|-[4x]-|----------------|
E|-----------7777-2222-|-----------7777------|------|-55555555-00000-|

Ending – No Bass (“hey, hey”)



Tap to rate this tab
 
# A B C D E F G H I J K L M N O P Q R S T U V W X Y Z