Song name
# A B C D E F G H I J K L M N O P Q R S T U V W X Y Z

Anti-flag - Spit In The Face tab

The timing might be a little off in some sections, but it'll make more sense if you 
to it!

/= slide
b= bend
p= pickup

Intro

x3
e------------|------|
B------------|------|
G------------|------|
D------------|------|
A-1-----43---|-1----|
E----4-------|----4-|

e-------------------------------------------------------------------------|
B-------------------------------------------------------------------------|
G-1/3--3-1--6--6-5-3--3-1--6--6-5-3--3-1--6--6-5-3--3-1--6--6-5-3--(slide)|
D-------------------------------------------------------------------------|
A-------------------------------------------------------------------------|
E-------------------------------------------------------------------------|

Verse

x4
e-----------------------|
B-----------------------|
G-3--3-66-55-11-653-(1)-|
D-----------------------|
A-----------------------|
E-----------------------|

Chorus

x3
e------------------------------|
B------------------------------|
G------------653-3-33333333-88-|
D-4--4--4--4-------------------|
A-4--4--4--4-------------------|
E-2--2--2--2-------------------|

e--------------------------------------------|
B--------------------------------------------|
G-66-6-66-6-66-6-66-6-88-8-66-6-1010-10-88-8-|
D--------------------------------------------|
A--------------------------------------------|
E--------------------------------------------|
(tens, not ones by the way!)

Pre-verse

e------------------------------------|
B------------------------------------|
G-3--3-66-55-11-653-(1)-3--3-66-55-1-|
D------------------------------------|
A------------------------------------|
E------------------------------------|

Verse
Chorus

Interlude

x4
e----------|
B----------|
G----------|
D----------|
A-1-----43-|
E----4-----|


Solo
(guitar 2 continues to play interlude)

...I couldn't figure out the first part because it was too hard (ha)..but here's the 
part anyway...

e-9--9-8--8-11--11-9-11-9-11--13--13--17--17-|
B--------------------------------------------|
G--------------------------------------------|
D--------------------------------------------|
A--------------------------------------------|
E--------------------------------------------|

Chorus

Bridge #1

x10
e-----------|
B-----------|
G-----------|
D-----------|
A-11(b)--p9-|
E-----------|
the bend is pretty small...I don't know if you really have to do it

Chorus

Bridge #2 (quite fast)

x4
e---------------------------------------|
B---------------------------------------|
G-33333333333333-66--------66--------55-|
D-33333333333333-66-444444-66-333333-55-|
A-11111111111111-44-444444-44-333333-33-|
E-------------------222222----111111----|

Outro

e-------------------------------------------------------------|
B-------------------------------------------------------------|
G-------------------65-3-33333333-88----------------------653-|
D-44-4-44-4-44-4-44-------------------44-4-44-4-44-4-44-------|
A-------------------------------------------------------------|
E-------------------------------------------------------------|
Tap to rate this tab
# A B C D E F G H I J K L M N O P Q R S T U V W X Y Z