Song name
# A B C D E F G H I J K L M N O P Q R S T U V W X Y Z

Anti-flag - If You Want A Steal tab

i didnt tab the solo stuff but i got the base stuff for the song and youll have to listen
to the song to get the exact rythm and number of times to strum things but its not hard 
was also very lazy when i was tabbing this song so i apologize for that

e-x-x-x-x-x-x-x--|
B-x-x-x-x-x-x-x--|  (listen to song for strum pattern)
G-x-x-x-x-x-x-x--|  (play 4x)
D-x-x-x-x-x-x-x--|
A-x-x-x-x-x-x-x--|
E-9-4-5-0-5-2-4--|

CHORUS
e---------------------------------------------------------------|
B---------------------------------------------------------------|(palm mute)
G---------------------------------------------------------------|
D--11------2------7------6------ i dont know for sure if 6------|x is right)
A--11(x6)--2(x6)--7(x6)--6-(x6)---------------------------------|(play twice
E--9-------0------5------4--------------------------------------|  2nd time
                                                                dont mute)
e-x-x-x-x-x-x-x--|
B-x-x-x-x-x-x-x--|  (listen to song for strum pattern)
G-x-x-x-x-x-x-x--|  (x3)
D-x-x-x-x-x-x-x--|
A-x-x-x-x-x-x-x--|
E-9-4-5-0-5-2-4--|

CHORUS
e---------------------------------------------------------------|(palm mute)
B---------------------------------------------------------------|
G---------------------------------------------------------------|
D--11------2------7------6------ i dont know for sure if 12-----|x is right)
A--11(x6)--2(x6)--7(x6)--6-(x6)---------------------------------|(play twice,
E--9-------0------5------4--------------------------------------|  2nd time
                                                                dont mute)
e-------------------------------|
B-------------------------------|
G-------------------------------|
D-7-----4-----6-----2-----------|
A-7(X4)-4(X4)-6(X4)-2(X4)-------|
E-5-----2-----4-----0-----------|

e-------------------|
B-------------------|
G-------------------|
D-7-----4-----6-----|
A-7(X4)-4(X4)-6(X4)-|
E-5-----2-----4-----|

e-------------------------------|
B-------------------------------|
G-------------------------------|
D-7-----4-----6-----2-----------|
A-7(X4)-4(X4)-6(X4)-2(X4)-------|
E-5-----2-----4-----0-----------|

e-------------------|
B-------------------|
G-------------------|(2nd to last chord strum a lot then change
D-7-----4-----6-----|when ".....see it falling from above")
A-7(X4)-4(X4)-6(X4)-|
E-5-----2-----4-----|

CHORUS
e--------------------------------------------------------------|
B--------------------------------------------------------------|
G--------------------------------------------------------------|
D--11------2------7------6------ i dont know for sure if 12----|x is right)
A--11(x6)--2(x6)--7(x6)--6-(x6---------------------------------|(palm mute)
E--9-------0------5------4-------------------------------------|

CHORUS X2

B-x-x-x-x-x-x-x--|
G-x-x-x-x-x-x-x--|
D-x-x-x-x-x-x-x--|
A-x-x-x-x-x-x-x--|
E-9-4-5-0-5-2-4--|
Tap to rate this tab
 
# A B C D E F G H I J K L M N O P Q R S T U V W X Y Z