Song name
# A B C D E F G H I J K L M N O P Q R S T U V W X Y Z

Anti-flag - We Are The Lost tab

- Anti-Flag - We Are The Lost
- Tabbed by: Pacu, bassist from a brazilian punk rock band called PunkAss.
- The tab itself is pretty good, but the solo you have to listen to the song to get the rhythm. 
__________________

Intro (Ps:"*" = P.M.)
Guitar I
e|---------------------------------------|------|
B|---------------------------------------|------|
G|--------------4-4-4--------------------|------|
D|-66-666-666-664-4-4-22-222-222-224-4-4-|-[1x]-|
A|-66-666-666-662-2-2-22-222-222-224-4-4-|------|
E|-44-444-444-44------00-000-000-002-2-2-|------|
   ** *** *** **      ** *** *** **
e|------------------------------|------|
B|------------------------------|------|
G|--------------4-4-4-----------|------|
D|-66-666-666-664-4-4-22-222-22-|-[1x]-|
A|-66-666-666-662-2-2-22-222-22-|------|
E|-44-444-444-44------00-000-00-|------|
   ** *** *** **      ** *** **
Guitar II
e|----------------|------|
B|----------------|------|
G|--Only-Guitar-I-|------|
D|----------------|-[2x]-|
A|----------------|------|
E|----------------|------|

Verse
Guitar I
e|---------------------------------------|------|
B|---------------------------------------|------|
G|--------------4-4-4--------------------|------|
D|-66-666-666-664-4-4-22-222-222-224-4-4-|-[2x]-|
A|-66-666-666-662-2-2-22-222-222-224-4-4-|------|
E|-44-444-444-44------00-000-000-002-2-2-|------|
   ** *** *** **      ** *** *** **

Guitar II
e|----------------|------|
B|----------------|------|
G|--Only-Guitar-I-|------|
D|----------------|-[2x]-|
A|----------------|------|
E|----------------|------|

Guitar I
e|---------------------------------------|------|
B|---------------------------------------|------|
G|--------------4-4-4--------------------|------|
D|-66-666-666-664-4-4-22-222-222-224-4-4-|-[1x]-|
A|-66-666-666-662-2-2-22-222-222-224-4-4-|------|
E|-44-444-444-44------00-000-000-002-2-2-|------|
   ** *** *** **      ** *** *** **
Guitar II
e|-------------------|------|
B|-------------------|------|
G|-------------------|------|
D|-------------------|-[1x]-|
A|-6~-5654~-22~--242-|------|
E|-------------------|------|

e|---------------------------------------|------|
B|---------------------------------------|------|
G|--------------4-4-4--------------------|------|
D|-66-666-666-664-4-4-22-222-222-224-4-4-|-[1x]-|
A|-66-666-666-662-2-2-22-222-222-224-4-4-|------|
E|-44-444-444-44------00-000-000-002-2-2-|------|
   ** *** *** **      ** *** *** **
Guitar II
e|-------------|------|
B|-------------|------|
G|-------------|------|
D|-------------|-[1x]-|
A|-6~-5658642~-|------|
E|-------------|------|

Pre-chorus ("deep inside of each of us")
Both GUitars
e|-------------------|
B|-------------------|
G|-------------------|
D|-22222222-22222222-|
A|-22222222-22222222-|
E|-00000000-00000000-|
   ********

Chorus
Both Guitars
e|-------------------------------------|
B|-------------------------------------|
G|----------44444444-------------------|
D|-66666666-44444444-22222222-22222222-|
A|-66666666-22222222-22222222-22222222-|
E|-44444444----------00000000-00000000-|

e|-------------------------------------|
B|-------------------------------------|
G|----------44444444-------------------|
D|-66666666-44444444-22222222-44444444-|
A|-66666666-22222222-22222222-44444444-|
E|-44444444----------00000000-22222222-|

e|-------------------------------------|
B|-------------------------------------|
G|----------44444444-------------------|
D|-66666666-44444444-22222222-22222222-|
A|-66666666-22222222-22222222-22222222-|
E|-44444444----------00000000-00000000-|

e|-------------------------------------|
B|-------------------------------------|
G|----------44444444-------------------|
D|-66666666-44444444-22222222-22222222-|
A|-66666666-22222222-22222222-22222222-|
E|-44444444----------00000000-00000000-|
                     ********

After Chorus
Guitar I
e|-------------------------------------|-------------------------------|
B|-------------------------------------|-------------------------------|
G|----------44444444-------------------|----------44444444-------------|
D|-66666666-44444444-22222222-22222222-|-66666666-44444444-22222222-2--|
A|-66666666-22222222-22222222-22222222-|-66666666-22222222-22222222-2--|
E|-44444444----------00000000-00000000-|-44444444----------00000000-0--|

Guitar II
e|---------------------------------------------------------------------|
B|-44-----------------44-----------------44----------------------------|
G|---4411--1313-3/43----4411--1313-3/64----4411--1313-3/43-3h4313-3h4\-|
D|-------11-----------------11-----------------11----------------------|
A|---------------------------------------------------------------------|
E|---------------------------------------------------------------------|

Verse
Guitar I
e|---------------------------------------|------|
B|---------------------------------------|------|
G|--------------4-4-4--------------------|------|
D|-66-666-666-664-4-4-22-222-222-224-4-4-|-[2x]-|
A|-66-666-666-662-2-2-22-222-222-224-4-4-|------|
E|-44-444-444-44------00-000-000-002-2-2-|------|
   ** *** *** **      ** *** *** **

Guitar II
e|----------------|------|
B|----------------|------|
G|--Only-Guitar-I-|------|
D|----------------|-[2x]-|
A|----------------|------|
E|----------------|------|

Cello (No Guitars) 
e|--------------------------------|------|
B|--------------------------------|------|
G|--------------------------------|------|
D|--------------------------------|-[1x]-|
A|-6~-5654~-22~--242--6~-5658642~-|------|
E|--------------------------------|------|

Chorus
Both Guitars
e|-------------------------------------|
B|-------------------------------------|
G|----------44444444-------------------|
D|-66666666-44444444-22222222-22222222-|
A|-66666666-22222222-22222222-22222222-|
E|-44444444----------00000000-00000000-|

e|-------------------------------------|
B|-------------------------------------|
G|----------44444444-------------------|
D|-66666666-44444444-22222222-44444444-|
A|-66666666-22222222-22222222-44444444-|
E|-44444444----------00000000-22222222-|

e|-------------------------------------|
B|-------------------------------------|
G|----------44444444-------------------|
D|-66666666-44444444-22222222-22222222-|
A|-66666666-22222222-22222222-22222222-|
E|-44444444----------00000000-00000000-|

e|-------------------------------------|
B|-------------------------------------|
G|----------44444444-------------------|
D|-66666666-44444444-22222222-22222222-|
A|-66666666-22222222-22222222-22222222-|
E|-44444444----------00000000-00000000-|
                     ********

Bridge ("outside, we are alive...")
Both Guitars
e|-------------------------------------|------|
B|-------------------------------------|------|
G|-44444444-33333333-------------------|------|
D|-44444444-44444444-66666666-22222222-|-[2x]-|
A|-22222222-11111111-66666666-22222222-|------|
E|-------------------44444444-00000000-|------|

e|------------------|------|
B|------------------|------|
G|-44-433-3---------|------|
D|-44-444-466-622-2-|-[3x]-|
A|-22-211-166-622-2-|------|
E|---------44-400-0-|------|

e|--------------------------------------------------------|------|
B|--------------------------------------------------------|------|
G|-44444444-33333333--------------------------------------|------|
D|-44444444-44444444-66666666-6-66-44-22222222-22222222-2-|-[1x]-|
A|-22222222-11111111-66666666-6-66-44-22222222-22222222-2-|------|
E|-------------------44444444-4-44-22-00000000-00000000-0-|------|
   ******** ******** ********   **    ********

After Bridge 
Guitar I
e|----------------|------|
B|----------------|------|
G|-Only-Guitar-II-|------|
D|----------------|-[1x]-|
A|----------------|------|
E|----------------|------|

Guitar II
e|-------------------|------|
B|-44----------------|------|
G|---4411--1313-3/43-|------|
D|-------11----------|-[1x]-|
A|-------------------|------|
E|-------------------|------|

Guitar I
e|-------------------------------------|-------------------------------------|
B|-------------------------------------|-------------------------------------|
G|----------44444444-------------------|----------44444444-------------------|
D|-66666666-44444444-22222222-22222222-|-66666666-44444444-22222222-22222222-|
A|-66666666-22222222-22222222-22222222-|-66666666-22222222-22222222-22222222-|
E|-44444444----------00000000-00000000-|-44444444----------00000000-00000000-|


Guitar II
e|---------------------------------------------------------------------|
B|-44-----------------44-----------------44----------------------------|
G|---4411--1313-3/43----4411--1313-3/64----4411--1313-3/43-3h4313-3h4\-|
D|-------11-----------------11-----------------11----------------------|
A|---------------------------------------------------------------------|
E|---------------------------------------------------------------------|

Solo Part
Guitar I
e|-------------------------------------|-------------------------------------|
B|-------------------------------------|-------------------------------------|
G|----------44444444-------------------|----------44444444-------------------|
D|-66666666-44444444-22222222-22222222-|-66666666-44444444-22222222-22222222-|
A|-66666666-22222222-22222222-22222222-|-66666666-22222222-22222222-22222222-|
E|-44444444----------00000000-00000000-|-44444444----------00000000-00000000-|
                                                           *******
Guitar II
e|------------------------------------------------------------|
B|-7-7--7-7-7--7-7--7-7-7-7--7-7-------7-7--7-7-7----7-7------|
G|-9b9b-9-9b9b-9-9b-9-9b9b9b-9-9b9-7~--9b9b-9-9b9b-79--9b9-7~-|
D|------------------------------------------------------------|
A|------------------------------------------------------------|
E|------------------------------------------------------------|

e|----------------------------------------------------|
B|-7-7--7-7-7--7-7--7-7-7-7--7-7------7---9--11--12-~-|
G|-9b9b-9-9b9b-9-9b-9-9b9b9b-9-9b9-7~-9b-11b-13b-14b~-|
D|----------------------------------------------------|
A|----------------------------------------------------|
E|----------------------------------------------------|

Chorus
Guitar I
e|-------------------------------------|------|
B|-------------------------------------|------|
G|----------44444444-------------------|------|
D|-66666666-44444444-22222222-22222222-|-[1x]-|
A|-66666666-22222222-22222222-22222222-|------|
E|-44444444----------00000000-00000000-|------|

Guitar II
e|----------|------|
B|-12-~~~~~-|------|
G|-14b~~~~~-|------|
D|----------|-[1x]-|
A|----------|------|
E|----------|------|

Guitar I
e|-------------------------------------|------|
B|-------------------------------------|------|
G|----------44444444-------------------|------|
D|-66666666-44444444-22222222-44444444-|-[1x]-|
A|-66666666-22222222-22222222-44444444-|------|
E|-44444444----------00000000-22222222-|------|

Guitar II
e|----------|------|
B|-12-~~~~~-|------|
G|-14b~~~~~-|------|
D|----------|-[1x]-|
A|----------|------|
E|----------|------|

Guitar I
e|-------------------------------------|-------------------------------------|
B|-------------------------------------|-------------------------------------|
G|----------44444444-------------------|----------44444444-------------------|
D|-66666666-44444444-22222222-22222222-|-66666666-44444444-22222222-22222222-|
A|-66666666-22222222-22222222-22222222-|-66666666-22222222-22222222-22222222-|
E|-44444444----------00000000-00000000-|-44444444----------00000000-00000000-|

Guitar II
e|---------------------------------------------------------------------|
B|-44-----------------44-----------------44----------------------------|
G|---4411--1313-3/43----4411--1313-3/64----4411--1313-3/43-3h4313-3h4\-|
D|-------11-----------------11-----------------11----------------------|
A|---------------------------------------------------------------------|
E|---------------------------------------------------------------------|

Ending ("we will be seen")
Guitar I
e|----------------------------------|------|
B|----------------------------------|------|
G|---------44-444-4-----------------|------|
D|-66-666-644-444-422-222-244-444-4-|-[2x]-|
A|-66-666-622-222-222-222-244-444-4-|------|
E|-44-444-4--------00-000-022-222-2-|------|

Guitar II
e|-------------------------------------------------|------|
B|-17-17-17-17-17-17-17----17-17-17-17-17-17-17-19-|------|
G|-19b19b19b19b19b19b19b17-19b19b19b19b19b19b19----|------|
D|-------------------------------------------------|-[2x]-|
A|-------------------------------------------------|------|
E|-------------------------------------------------|------|

Guitar I
e|----------------------------------|------|
B|----------------------------------|------|
G|---------44-444-4-----------------|------|
D|-66-666-644-444-422-222-244-444-4-|-[2x]-|
A|-66-666-622-222-222-222-244-444-4-|------|
E|-44-444-4--------00-000-022-222-2-|------|

Guitar II
e|-----------------------------------|------|
B|-17-~~~--17--------17-~~~--17---19-|------|
G|-19b~~~--19b1917---19b~~~--19b19---|------|
D|-----------------------------------|-[2x]-|
A|-----------------------------------|------|
E|-----------------------------------|------|

Both Guitars
e|------|------|
B|------|------|
G|------|------|
D|-6~~~-|-[1x]-|
A|-6~~~-|------|
E|-4~~~-|------|
Tap to rate this tab
# A B C D E F G H I J K L M N O P Q R S T U V W X Y Z