Song name
# A B C D E F G H I J K L M N O P Q R S T U V W X Y Z

Anti-flag - The Modern Rome Burning tab

- Anti-Flag - The Modern Rome Burning
- Tabbed by: Pacu, bassist from a brazilian punk rock band called PunkAss.
- Great song.
__________

Verse I
Guitar I
e|----------------------------------|
B|----------------------------------|
G|-3-3-3-3-3-3-3-3-3333333333333333-|
D|-3-3-3-3-3-3-3-3-3333333333333333-|
A|-1-1-1-1-1-1-1-1-1111111111111111-|
E|----------------------------------|
                   *************
GUitar II
e|----------------------------------|
B|----------------------------------|
G|-----------------3333333333333333-|
D|-----------------3333333333333333-|
A|-----------------1111111111111111-|
E|----------------------------------|
                   *************
After Verse
Guitar I
e|-------------------------------------|
B|-------------------------------------|
G|----------66666666-------------------|
D|-44444444-66666666-44444444-66666666-|
A|-44444444-44444444-44444444-66666666-|
E|-22222222----------22222222-44444444-|

Guitar II
e|-------------------------------------|
B|---7766-----7766-----7766-----776699-|
G|-66----88-66----88-66----88-66-------|
D|-------------------------------------|
A|-------------------------------------|
E|-------------------------------------|

Verse II
Guitar I
e|---------------------------------------------------------------------|
B|---------------------------------------------------------------------|
G|-3-3-3-3-3-3-323--3-3-3-3-3-3-323--3-3-3-3-3-3-323---333333333333333-|
D|-3-3-3-3-3-3-323--3-3-3-3-3-3-323--3-3-3-3-3-3-323---333333333333333-|
A|-1-1-1-1-1-1-101--1-1-1-1-1-1-101--1-1-1-1-1-1-101---111111111111111-|
E|---------------------------------------------------------------------|
                                                       ************
Guitar II
e|---------------------------------------------------------------------|
B|---------------------------------------------------------------------|
G|-6666666666666655-6666666666666655-66655565-66655565-666666666666666-|
D|---------------------------------------------------------------------|
A|---------------------------------------------------------------------|
E|---------------------------------------------------------------------|
   **************** **************** ******** ******** ********

After Verse

Pre-chorus
Guitar I
e|------------------------------------|
B|------------------------------------|
G|-3~----------------6~-6----------5~-|
D|-3~------4~~-------6~--6------6-----|
A|-1~------4~~-------4~---4----6-6----|
E|---------2~~----------------4-------|

Guitar II
e|-----------------------------------|
B|-------------7p6p4-6~-7p6p4--------|
G|-6~-5-6--3~~----------------6~-8-5-|
D|-----------------------------------|
A|-----------------------------------|
E|-----------------------------------|

Chorus
Guitar I
e|---------------------------------------------------------------------|
B|---------------------------------------------------------------------|
G|-3333333333333333------------------6666666666666666------------------|
D|-3333333333333333-4444444444444444-6666666666666666-6666666666666666-|
A|-1111111111111111-4444444444444444-4444444444444444-6666666666666666-|
E|------------------2222222222222222------------------4444444444444444-|

Guitar II
e|-1111111111111111--------------------------------------------------------|
B|-2222222222222222--------------------------------------------------------|
G|-3333333333333333------------------6-668-8810-101011-1111-5-556-668-88-5-|
D|-3333333333333333-4444444444444444-x-xxx-xx-x--x-x-x--x-x-x-xxx-xxx-xx-x-|
A|------------------4444444444444444-4-446-66-8--8-8-9--9-9-3-334-446-66-3-|
E|------------------2222222222222222---------------------------------------|

Guitar I
e|----------------------------------------------------------------------------------|
B|----------------------------------------------------------------------------------|
G|-3333333333333333------------------6666666666666666-------------------------------|
D|-3333333333333333-4444444444444444-6666666666666666-66666666666666666666666666666-|
A|-1111111111111111-4444444444444444-4444444444444444-66666666666666666666666666666-|
E|------------------2222222222222222------------------44444444444444444444444444444-|

Guitar II
e|-1111111111111111-1111111111111111------------------------------------------------|
B|-2222222222222222-2222222222222222------------------------------------------------|
G|-3333333333333333-3333333333333333-6-668-8810-101011-1111-5-556-668-88-5-55-5-6-8-|
D|-3333333333333333-3333333333333333-x-xxx-xx-x--x-x-x--x-x-x-xxx-xxx-xx-x-xx-x-x-x-|
A|-----------------------------------4-446-66-8--8-8-9--9-9-3-334-446-66-3-33-3-4-6-|
E|----------------------------------------------------------------------------------|

Verse III
Guitar I
e|-----------------------------------|
B|-----------------------------------|
G|-3-3-3-3-3-3-323--3333333333333333-|
D|-3-3-3-3-3-3-323--3333333333333333-|
A|-1-1-1-1-1-1-101--1111111111111111-|
E|-----------------------------------|
                    *************
Guitar II
e|-----------------------------------|
B|-----------------------------------|
G|-6666666666666655-6666666666666655-|
D|-----------------------------------|
A|-----------------------------------|
E|-----------------------------------|
   **************** ********

After Verse

Verse IV
Guitar I
e|-------------------------------------------------------|
B|-------------------------------------------------------|
G|-3-3-3-3-3-3-323--3-3-3-3-3-3-323--3-3-3-3-3-3-323---3-|
D|-3-3-3-3-3-3-323--3-3-3-3-3-3-323--3-3-3-3-3-3-323---3-|
A|-1-1-1-1-1-1-101--1-1-1-1-1-1-101--1-1-1-1-1-1-101---1-|
E|-------------------------------------------------------|

Guitar II
e|-------------------------------------------------------|
B|-------------------------------------------------------|
G|-6666666666666655-6666666666666655-66655565-66655565-6-|
D|-------------------------------------------------------|
A|-------------------------------------------------------|
E|-------------------------------------------------------|
   **************** **************** ******** ********

After Verse
Pre-chorus
Chorus

Bridge I
Guitar I
e|-------------------------------------------------|
B|-------------------------------------------------|
G|-3~--------3~------------3~------------3~--------|
D|-3~--------3~------------3~------------3~--------|
A|-1~--------1~------------1~------------1~--------|
E|-------------------------------------------------|

Guitar II
e|----1--1------1-1-1h2p1-----1-1-1h2p1-----1--1---|
B|-----2--2------2-------2-----2-------2-----2--2--|
G|-3~---3--3-3~------------3~------------3~---3--3-|
D|-3~--------3~------------3~------------3~--------|
A|-1~--------1~------------1~------------1~--------|
E|-------------------------------------------------|

Bridge II
Both Guitars
e|-------------------------------------|------|
B|-------------------------------------|------|
G|----------66666666----------66666666-|------|
D|-44444444-66666666-44444444-66666666-|-[2x]-|
A|-44444444-44444444-44444444-44444444-|------|
E|-22222222----------22222222----------|------|

Bridge III
GUitar I
e|-----------------------------|------|
B|-----------------------------|------|
G|-3~----6~-----------------8~-|------|
D|-x-----x-----6~----4~--3~-x--|-[4x]-|
A|-1~----4~----x-----x---x--6~-|------|
E|-------------4~----2~--1~----|------|

Guitar II
e|------------------------------|------|
B|------------------------------|------|
G|-3~----6~---------------------|------|
D|-------------6~----4~-43~--1~-|-[4x]-|
A|------------------------------|------|
E|------------------------------|------|

Bridge IV [2x]
Guitar I
e|---------------------------------------------------------------------|
B|---------------------------------------------------------------------|
G|-3333333333333333-6666666666666666------------------------------8888-|
D|-3333333333333333-6666666666666666-6666666666666666-4444444433338888-|
A|-1111111111111111-4444444444444444-6666666666666666-4444444433336666-|
E|-----------------------------------4444444444444444-222222221111-----|

Guitar
e|---------------------------------------------------------------------------------|
B|---------------------------------------------------------------------------------|
G|-33333333-11-1111-10-8--66666666-11-1111-10-8--1313131313131313-11-1111-10-8-----|
D|-xxxxxxxx--x--x-x--x-x--xxxxxxxx--x--x-x--x-x---x-x-x-x-x-x-x-x--x--x-x--x-x-----|
A|-11111111--9--9-9--8-6--44444444--9--9-9--8-6--1111111111111111--9--9-9--8-6-----|
E|---------------------------------------------------------------------------------|

--------------------------------|
--------------------------------|
1111111111111111-10-1010-8-88---|
x-x-x-x-x-x-x-x--x--x-x-x-xx----|
9-9-9-9-9-9-9-9--8--8-8-6-66----|
--------------------------------|

Bridge V
GUitar I
e|--------------------------------|------|
B|--------------------------------|------|
G|-3~----6~-----------------8~-3~-|------|
D|-x-----x-----6~----4~--3~-x--x--|-[1x]-|
A|-1~----4~----x-----x---x--6~-1~-|------|
E|-------------4~----2~--1~-------|------|

Guitar II
e|--------------------------------|------|
B|----------------------2---------|------|
G|-3~----6~------------3-------3~-|------|
D|-------------6~----4~--3~-1~----|-[1x]-|
A|--------------------------------|------|
E|--------------------------------|------|

Ending
Both Guitars
e|---|
B|---|
G|-3-|
D|-3-|
A|-1-|
E|---|
Tap to rate this tab
 
# A B C D E F G H I J K L M N O P Q R S T U V W X Y Z