Guitaretab - guitar tabs
Song name
# A B C D E F G H I J K L M N O P Q R S T U V W X Y Z

Anti-flag - One Trillion Dollars Acoustic tab

Tabbed by: Crazy22
Email: nunoalves91@gmail.com


One trillion dollars Acoustic Version - Anti-Flag

Hey! this is my first tab and i hope this is a good one :D

Drop C - CGCFAD
[ Tab from: http://www.guitaretab.com/a/anti-flag/113017.html ]
D|------1----1----1--------1------1----1----1--------1-| 2x
A|------1----1----1--------3------3----3----3--------1-|
F|------2----2----2--------2------2----2----2--------2-|
C|----3-3--3-3--3-3--3-2-0-----0-----0----0---0---3--3-|
G|------3----3----3-----------------------------3----3-|
C|------2----2----2----------------------------------2-|

Strumming pattern in: http://vids.myspace.com/index.cfm?
fuseaction=vids.individual&videoid=2979032&searchid=7f57ff1a-14c1-4a24-a1e4-265a113632f8

Chords for the rest of the song

   G     Em      ?      C         F/F#   F

D|--3------------1------3---------1------1--|
A|--3------------1------1---------1------1--|
F|---------------3----------------2------2--|
C|--------2------3------2---------3------3--|
G|--2-----2------1------3---------3------3--|
C|--3------------1----------------2------1--|
Related for One Trillion Dollars Acoustic tab
×
Best way to learn
"One Trillion Dollars Acoustic"