Song name
# A B C D E F G H I J K L M N O P Q R S T U V W X Y Z

Anti-flag - The Truth tab

Artist:  Anti-Flag
Song:  The Truth
Album:  Their System Doesn't Work for You
Tabbed by:  Rick  (rickrack97@hotmail.com)
AIM:  rickrack97


Chords:

G#5  (466xxx)
B5   (799xxx)
E5   (x799xx)
C#5  (x466xx)
D#5  (x688xx)

Intro:

E|-------------------------------------------------------|
B|-------------------------------------------------------|
G|--------------9-9-9-6-6-6-------------9-9-9-9-9-9-9-9--|
D|--6-6-6-9-9-9-9-9-9-6-6-6-6-6-6-9-9-9-9-9-9-9-9-9-9-9--|
A|--6-6-6-9-9-9-7-7-7-4-4-4-6-6-6-9-9-9-7-7-7-7-7-7-7-7--|
E|--4-4-4-7-7-7-------------4-4-4-7-7-7------------------|
cont.
E|------------------------------------------------------------|
B|------------------------------------------------------------|
G|--------------9-9-9-6-6-6-----------------6-6-6-6-6-6-6-6---|
D|--6-6-6-9-9-9-9-9-9-6-6-6-9-9-9-9-9-9-9-9-6-6-6-6-6-6-6-6---|
A|--6-6-6-9-9-9-7-7-7-4-4-4-9-9-9-9-9-9-9-9-4-4-4-4-4-4-4-4---|
E|--4-4-4-7-7-7-------------7-7-7-7-7-7-7-7-------------------|


Verse:

E|----------------------------------------------------------------|
B|----------------------------------------------------------------|
G|-----------------9--9-9-9-9-9-9----------------6--6-6-6-6-6-6---|
D|--6--6-6-6-6-6-6-9--9-9-9-9-9-9-9--9-9-9-9-9-9-6--6-6-6-6-6-6---|
A|--6--6-6-6-6-6-6-7--7-7-7-7-7-7-9--9-9-9-9-9-9-4--4-4-4-4-4-4---|
E|--4--4-4-4-4-4-4----------------7--7-7-7-7-7-7------------------|
       |----------|   |----------|   |----------|   |----------|
        palm mute      palm mute      palm mute      palm mute

Next Part:

E|------------------------------------------------------------------------|
B|------------------------------------------------------------------------|
G|---------------9-9--------------------------6-6-6-6-6-6-6-6-------------|
D|--6-6----------9-9----------9-9-9-9-9-9-9-9-6-6-6-6-6-6-6-6-------------|
A|--6-6----------7-7----------9-9-9-9-9-9-9-9-4-4-4-4-4-4-4-4-------------|
E|--4-4-----------------------7-7-7-7-7-7-7-7-----------------------------|

Ending:

E|------------------------------------------------------------------------|
B|------------------------------------------------------------------------|
G|--9-9-9-6-6-6-------------------9-9-9-6-6-6-8-8-8-8-8-8-8-8-------------|
D|--9-9-9-6-6-6-6-6-6-6-6-6-6-6---9-9-9-6-6-6-8-8-8-8-8-8-8-8-------------|
A|--7-7-7-4-4-4-6-6-6-6-6-6-6-6---7-7-7-4-4-4-6-6-6-6-6-6-6-6-------------|
E|--------------4-4-4-4-4-4-4-4-------------------------------------------|


That's all.  This song is cool.  Later.
Tap to rate this tab
 
# A B C D E F G H I J K L M N O P Q R S T U V W X Y Z