Song name
# A B C D E F G H I J K L M N O P Q R S T U V W X Y Z

Anti-flag - Wake Up tab

Help us improve GuitareTab! Take a short survey!
Wake Up! - Anti-Flag

Intro:

Guitar 1
e|-------------------------------------------6-------|
B|-6-5---6-5---6-5-8-6---6-5---6-5---6-5-8-6---8-6-5-|
G|-----7-----7---------5-----7-----7-----------------|
D|---------------------------------------------------|
A|---------------------------------------------------|
E|---------------------------------------------------|

Guitar 2
e|----------------------------------------------------------------|
B|----------------------------------------------------------------|
G|-7-7-7----------------------7-7-7-------------------------------|
D|-7-7-7-8-8-8-10-10-10-10-10-7-7-7-8-8-8-10-10-10-10-10-10-10-10-|
A|-5-5-5-8-8-8-10-10-10-10-10-5-5-5-8-8-8-10-10-10-10-10-10-10-10-|
E|-------6-6-6-8--8--8--8--8--------6-6-6-8--8--8--8--8--8--8--8--|

Verse:

Git. 1
e|---------------------------------------------------------------------------------------|
B|-6-----6-------------------------------6-8-6-5---5-------6---5h6-----------------------|
G|-7--7--7----10-7------12-9---------7---7-------7---5---7---7-----7-------7---10-9-7----|
D|-7--8--7--8------8-10------10----7---7-7---------------------------7---8---8--------10-|
A|-5--8--5-----------------------5---------------------5---------------------------------|
E|----6----------------------------------------------------------------6-----------------|

Git. 2
e|---------------------------------------------------------|
B|---------------------------------------------------------|
G|-7-----------------7-7-----------------------------------|
D|-7--7-8--8-7-7-8-8-----7-7h8p7----7-7-8-8-7-7h8p7----7-8-|
A|-5-----------------------------10-----------------10-----|
E|---------------------------------------------------------|

Pre-Chorus:

Git. 1
e|---------------------------------------------------------------------------------------------|
B|---------------------------------------------------------------------------------------------|
G|-7-7-7-7-7-7-7-7-7-7-7-7-------------------7-----7-7-7-7-7-7-7-7-7-7-7-7---------------------|
D|-7-7-7-7-7-7-7-7-7-7-7-7-8-8-8-8-8-8-8-8-8---8---7-7-7-7-7-7-7-7-7-7-7-7-8-8-8-8-10-10-10-10-|
A|-5-5-5-5-5-5-5-5-5-5-5-5-8-8-8-8-8-8-8-8-8-----8-5-5-5-5-5-5-5-5-5-5-5-5-8-8-8-8-10-10-10-10-|
E|-------------------------6-6-6-6-6-6-6-6-6-------------------------------6-6-6-6-8--8--8--8--|
P.M___   ___   ___   ___   ___   ___   ___         ___   ___   ___   ___

Git. 2
e|---------------------------------------|
B|-6-----6---------6-----6---6---8-------|
G|---7-----7---------7-----7---7---7-5-7-|
D|-----8-----8---------8-----------------|
A|-------------8-8-----------------------|
E|---------------------------------------|

Chorus:

Git. 1+2

e|-----------------------------------------------|
B|-----------------------------------------------|
G|-----------------------------------------------|
D|-12-12-12-12-12-10-10-10-10-10-8-8-8-8-8-8-8-8-|
A|-12-12-12-12-12-10-10-10-10-10-8-8-8-8-8-8-8-8-|
E|-10-10-10-10-10-8--8--8--8--8--6-6-6-6-6-6-6-6-|

e|-----------------------------------------------|
B|-----------------------------------------------|
G|-----------------------------------------------|
D|-12-12-12-12-12-12-12-12-12-12-8-8-8-8-8-8-8-8-|
A|-12-12-12-12-12-12-12-12-12-12-8-8-8-8-8-8-8-8-|
E|-10-10-10-10-10-8--8--8--8--8--6-6-6-6-6-6-6-6-|

e|-----------------------------------------|
B|-----------------------------------------|
G|-----------------------------------------|
D|-12-10-12-10-12-10-12-10-8-8-8-8-8-8-8-8-|
A|-12-10-12-10-12-10-12-10-8-8-8-8-8-8-8-8-|
E|-10-8--10-8--10-8--10-8--6-6-6-6-6-6-6-6-|

e|--------------------------------------------------------|
B|--------------------------------------------------------|
G|--------------------------------------------------------|
D|-12-12-12-12-12-12-12-12-12-12-8-8-8-8-8-8-8-8----------|
A|-12-12-12-12-12-12-12-12-12-12-8-8-8-8-8-8-8-8-pickslide|
E|-10-10-10-10-10-8--8--8--8--8--6-6-6-6-6-6-6-6----------|

Intro:

Git. 1
e|-----------------------5---5---5---5-------
B|-6-5---6-5---6-5-8-6-----------------8-6-8-
G|-----7-----7---------5---7---7---7---------
D|-------------------------------------------
A|-------------------------------------------
E|-------------------------------------------

Git. 2
e|----------------------------------------------------------------|
B|----------------------------------------------------------------|
G|-7-7-7----------------------7-7-7-------------------------------|
D|-7-7-7-8-8-8-10-10-10-10-10-7-7-7-8-8-8-10-10-10-10-10-10-10-10-|
A|-5-5-5-8-8-8-10-10-10-10-10-5-5-5-8-8-8-10-10-10-10-10-10-10-10-|
E|-------6-6-6-8--8--8--8--8--------6-6-6-8--8--8--8--8--8--8--8--|

Verse:

Git. 1
e|----------------|
B|----------------|
G|-7-----7--------|
D|-7--8--7--8--10-|
A|-5--8--5--8--10-|
E|----6-----6--8--|

Git. 2
e|-------5-6--5-------------------5--6--5-------------------|
B|-----6---6--6---6------8--------6--6--6----6-------8------|
G|---7-----7--7-----7-------9-----7--7--7------7-------9----|
D|---------8--7-------8-------10--7--8--7--------8-------10-|
A|-5-------8--5-------------------5--8--5-------------------|
E|---------6-----6------8------------6-----6-------8--------|

Pre-Chorus:

Git. 1
e|---------------------------------------------------------------------------------------------|
B|---------------------------------------------------------------------------------------------|
G|-7-7-7-7-7-7-7-7-7-7-7-7-------------------7-----7-7-7-7-7-7-7-7-7-7-7-7---------------------|
D|-7-7-7-7-7-7-7-7-7-7-7-7-8-8-8-8-8-8-8-8-8---8---7-7-7-7-7-7-7-7-7-7-7-7-8-8-8-8-10-10-10-10-|
A|-5-5-5-5-5-5-5-5-5-5-5-5-8-8-8-8-8-8-8-8-8-----8-5-5-5-5-5-5-5-5-5-5-5-5-8-8-8-8-10-10-10-10-|
E|-------------------------6-6-6-6-6-6-6-6-6-------------------------------6-6-6-6-8--8--8--8--|
P.M___   ___   ___   ___   ___   ___   ___         ___   ___   ___   ___

Git. 2
e|---------------------------------------|
B|-6-----6---------6-----6-------6b8-----|
G|---7-----7---------7-----7---7---------|
D|-----8-----8---------8-----8-----------|
A|-------------8-8-----------------------|
E|---------------------------------------|

Chorus:

Git. 1+2

e|-----------------------------------------------|
B|-----------------------------------------------|
G|-----------------------------------------------|
D|-12-12-12-12-12-10-10-10-10-10-8-8-8-8-8-8-8-8-|
A|-12-12-12-12-12-10-10-10-10-10-8-8-8-8-8-8-8-8-|
E|-10-10-10-10-10-8--8--8--8--8--6-6-6-6-6-6-6-6-|

e|-----------------------------------------------|
B|-----------------------------------------------|
G|-----------------------------------------------|
D|-12-12-12-12-12-12-12-12-12-12-8-8-8-8-8-8-8-8-|
A|-12-12-12-12-12-12-12-12-12-12-8-8-8-8-8-8-8-8-|
E|-10-10-10-10-10-8--8--8--8--8--6-6-6-6-6-6-6-6-|

e|-----------------------------------------|
B|-----------------------------------------|
G|-----------------------------------------|
D|-12-10-12-10-12-10-12-10-8-8-8-8-8-8-8-8-|
A|-12-10-12-10-12-10-12-10-8-8-8-8-8-8-8-8-|
E|-10-8--10-8--10-8--10-8--6-6-6-6-6-6-6-6-|

e|-----------------------------------------------|
B|-----------------------------------------------|
G|-----------------------------------------------|
D|-12-12-12-12-12-12-12-12-12-12-8-8-8-8-8-8-8-8-|
A|-12-12-12-12-12-12-12-12-12-12-8-8-8-8-8-8-8-8-|
E|-10-10-10-10-10-8--8--8--8--8--6-6-6-6-6-6-6-6-|

Bridge:

Git. 1+2

e|------------------------------------------------------|
B|------------------------------------------------------|
G|------------------------------------------------------|
D|-10-10-10-10-10-10-10-10-10-10-10-8-8-8-8-8-8-8-8-8-8-|x2
A|-10-10-10-10-10-10-10-10-10-10-10-8-8-8-8-8-8-8-8-8-8-|
E|-8--8--8--8--8--8--8--8--8--8--8--6-6-6-6-6-6-6-6-6-6-|

Git. 1
e|-------------------------------------|
B|-------------------------------------|
G|-14--12--10---10----------14--12--10-|
D|-14--12--10------10-------14--12--10-|
A|-12--10--8----------12----12--10--8--|
E|-----------------------10------------|

Git. 2
e|-------------------------|
B|-------------------------|
G|-------------------------|
D|-14--12--10---14--12--10-|
A|-14--12--10---14--12--10-|
E|-12--10--8----12--10--8--|


Git. 1
e|----------------------------------------------------------|
B|----------------------------------------------------------|
G|-14-14-12h14p12-12-12-10h12p10----10----12-12h14p12-10----|
D|-14-14----------12-12----------12----12----------------12-|x3
A|-12-12----------10-10-------------------------------------|
E|----------------------------------------------------------|

Git. 2
e|-------------------------------------------------------|
B|-------------------------------------------------------|
G|-------------------------------------------------------|
D|-14-14----------12-12----------10-10-10-10-10-10-10-10-|
A|-14-14----------12-12----------10-10-10-10-10-10-10-10-|x3
E|-12-12----------10-10----------8--8--8--8--8--8--8--8--|

Git. 1
e|----------------|
B|----------------|
G|-14-14-12-12-10-|
D|-14-14-12-12-10-|
A|-12-12-10-10-8--|
E|----------------|

Git. 2
e|----------------|
B|----------------|
G|----------------|
D|-14-14-12-12-10-|
A|-14-14-12-12-10-|
E|-12-12-10-10-8--|
Related for Wake Up tab