Song name
# A B C D E F G H I J K L M N O P Q R S T U V W X Y Z

Anti-flag - Go West tab

im not gunna tab out how many times you strum the chords but its not hard im sure you 
do it all the chords are there you just gotta do the strum patterns on your own

INTRO
e------------------------------------|
B------------------------------------|
G------------------------------------|
D-7-5-7-3-2-5-7-3-7-10-5-1-----------|x2
A-7-5-7-3-2-5-7-3-7-10-5-1-----------|
E-5-3-5-1-0-3-5-1-5-8--3-5-----------|

VERSE
e----------------------------------------|
B----------------------------------------|
G----------------------------------------|
D-7-3-7-10-5-7-3-7-3-2-3-5-7-3-7-10-5----|
A-7-3-7-10-5-7-3-7-3-2-3-5-7-3-7-10-5----|
E-5-1-5-8--3-5-1-5-1-0-1-3-5-1-5-8--3----|

PRE-CHORUS
e----------------------------------|
B----------------------------------|
G----------------------------------|
D----------------------------------|
A-7/10-10-12-10-8-5----------------|
E----------------------------------|

CHORUS
e----------------------------------|
B----------------------------------|
G----------------------------------|
D-7-3-10-5-------------------------|X5 (i think)
A-7-3-10-5-------------------------|
E-5-1-8--3-------------------------|

INTRO
VERSE x2
PRE-CHORUS
CHORUS x5
PRE-CHORUS
CHORUS x4
Tap to rate this tab
# A B C D E F G H I J K L M N O P Q R S T U V W X Y Z