Song name
# A B C D E F G H I J K L M N O P Q R S T U V W X Y Z

Anti-flag - Police State In The Usa tab

Song: Police State In The U.S.A.
Album: Die For The Government
Performed By: Anti-Flag


Tuning: Standard tuning.


Ok this is my first tab, but it's a pretty simple song, I'm surprised this one wasn't on 
site.

Figure out all the patterns for yourself by listening to the song, they're REALLY simple.


(Intro):
e|--------------------------------------------------------------------|
B|--------------------------------------------------------------------|
G|----x-9--------------x-9--111111111111------------------------------|
D|--6-x-9-x-9999999--6-x-9--111111111111------------------------------|
A|--6-x-7-x-9999999--6-x-7--9-9-9-9-9-9--(play twice)-----------------|
E|--4-------7777777--4------------------------------------------------|

Verse:
e|--------------------------------------------------------------------|
B|--------------------------------------------------------------------|
G|--------------------9-9-9999-9-9-9999-------------------------------|
D|--6-6-6666-6-6-6666-9-9-9999-9-9-9999-------------------------------|
A|--6-6-6666-6-6-6666-7-7-7777-7-7-7777-------------------------------|
E|--4-4-4444-4-4-4444-------------------------------------------------|

End verse before chorus:
e|--------------------------------------------------------------------|
B|--------------------------------------------------------------------|
G|----------------------x-x-x-x-x-x-x---------------------------------|
D|--6-6-6666-6-6-6666---x-x-x-x-x-x-x---------------------------------|
A|--6-6-6666-6-6-6666---x-x-x-x-x-x-x---------------------------------|
E|--4-4-4444-4-4-4444-------------------------------------------------|

Chorus:
e|--------------------------------------------------------------------|
B|--------------------------------------------------------------------|
G|-----------9-99-999-------------------------------------------------|
D|--9-99-999-9-99-999-666666666---------------------------------------|
A|--9-99-999-7-77-777-666666666---------------------------------------|
E|--7-77-777----------444444444---------------------------------------|

End chorus:
e|-------------|
B|-------------|
G|-------9-----|
D|--9----9-----|
A|--9----7-----|
E|--7----------|

Then you repeat verse and the chorus, then comes this riff:
e|--------------------------------------------------------------------|
B|--------------------------------------------------------------------|
G|--------------------------------------------------------------------|
D|--11-11-11/9-11-111111/9-7-7777/9-9999------------------------------|
A|--11-11-11/9-11-111111/9-7-7777/9-9999------------------------------|
E|--9--9--9-/7-9--9-9-9-/7-5-5555/7-7777------------------------------|

e|--------------------------------------------------------------------|
B|--------------------------------------------------------------------|
G|-----------------------9-9-9999-11-11-111111------------------------|
D|--11-11-11/9-11-111111-9-9-9999-11-11-111111------------------------|
A|--11-11-11/9-11-111111-7-7-7777-9--9--9-9-9-------------------------|
E|--9--9--9-/7-9--9-9-9-----------------------------------------------|


Then comes the intro riff again, and from there you can just pretty much pick it up 
(I hope)

I hope this is useful to you, and I also hope it's correct. Enjoy.
Tap to rate this tab
# A B C D E F G H I J K L M N O P Q R S T U V W X Y Z