Song name
# A B C D E F G H I J K L M N O P Q R S T U V W X Y Z

Anti-flag - Zapatista Dont Give Up tab

Help us improve GuitareTab! Take a short survey!
hey this is my first tab, i wrote this because i really like this song and whne i tried 
find the tabs, there were no tabs for this one, so here they are :p you can actually 
it. This tab is 100% correct trust me

/ = pick scrape
~ = let ring
* = palm mute

Intro (first part)
e|------------------------------------------------------|
B|------------------------------------------------------|
G|--6-~----------------6-~---6--------------------------|
D|--6-~----------------6-~---6--------------------------|
A|--4-~----------------4-~---4--------------------------|
E|------/////////////-----------------------------------|

Intro (second part)
e|---------------------------------------4--------------|
B|--------------5-4------------------------7-5-7-5-4----|
G|--66446466446-----6-4---4--66446466446----------------|
D|----------------------4-------------------------------|
A|------------------------------------------------------|
E|------------------------------------------------------|

Verse
e|---------------------------------------------------------------------------|
B|---------------------------------------------------------------------------|
G|--6-66666666666666--9-99999999999999--4-44444444444444----------------4-44-|
D|--6-66666666666666--9-99999999999999--4-44444444444444--7-777777-6-66-4-44-|
A|--4-44444444444444--7-77777777777777--2-22222222222222--7-777777-6-66-2-22-|
E|--------------------------------------------------------5-555555-4-44------|
      **************    **************    **************    ******   **   **

e|---------------------------------------------------------------------|
B|---------------------------------------------------------------------|
G|--6-66666666666666--9-99999999999999--4-44444444444444----9-4-444444-|
D|--6-66666666666666--9-99999999999999--4-44444444444444--7-9-4-444444-|
A|--4-44444444444444--7-77777777777777--2-22222222222222--7-7-2-222222-|
E|--------------------------------------------------------5------------|
      **************    **************    **************        ******

e|-----------------------------------------------|
B|-----------------------------------------------|
G|----9-4-444444----9-4-444444----9-4-444444-----|
D|--7-9-4-444444--7-9-4-444444--7-9-4-444444-----|
A|--7-7-2-222222--7-7-2-222222--7-7-2-222222-----|
E|--5-------------5-------------5------------////|
          ******        ******

Chorus
e|-----------------------------------------------------------------------|
B|-----------------------------------------------------------------------|
G|--6-666666--9-999999--4-444444--11-9-8------------9-8-6--9-9-9--4444-4-|
D|--6-666666--9-999999--4-444444--x--x-x--7-777777--x-x-x--9-9-9--4444-4-|
A|--4-444444--7-777777--2-222222--9--7-6--7-777777--7-6-4--7-7-7--2222-2-|
E|----------------------------------------5-555555-----------------------|

e|-----------------------------------------------------------------------|
B|-----------------------------------------------------------------------|
G|--6-666666--9-999999--4-444444--11-9-8------------9-8-6--9-9-9--4444-4-|
D|--6-666666--9-999999--4-444444--x--x-x--7-777777--x-x-x--9-9-9--4444-4-|
A|--4-444444--7-777777--2-222222--9--7-6--7-777777--7-6-4--7-7-7--2222-2-|
E|----------------------------------------5-555555-----------------------|

Then you just repeat all of these

Intro (part two)
Verse
Chorus

Then it comes the interlude

Interlude
e|---------------------------------------------------------------------------------|
B|---------------------------------------------------------------------------------|
G|--6-~--6-~--6-66666666666666-9999999999999999-4444444444444444-------------------|
D|--6-~--6-~--6-66666666666666-9999999999999999-4444444444444444-77777777-66666666-|
A|--4-~--4-~--4-44444444444444-7777777777777777-2222222222222222-77777777-66666666-|
E|---------------------------------------------------------------55555555-44444444-|
                ************** **************** **************** ******** ********

e|-----------------------------------------------------------------------|
B|-----------------------------------------------------------------------|
G|--6-66666666666666-9999999999999999-4444444444444444-------------------|
D|--6-66666666666666-9999999999999999-4444444444444444-77777777----------|
A|--4-44444444444444-7777777777777777-2222222222222222-77777777----------|
E|-----------------------------------------------------55555555-////////-|
      ************** **************** ********

Outro
e|---------------------------------------------------------------------------|
B|---------------------------------------------------------------------------|
G|--6666666666666666-9999999999999999-4444444444444444----------1111111199---|
D|--6666666666666666-9999999999999999-4444444444444444-77777777-x-x-x-x-xx---|
A|--4644444444444444-7777777777777777-2222222222222222-77777777-9-9-9-9-77---|
E|-----------------------------------------------------55555555-----------//-|

e|---------------------------------------------------------------------------------------|
B|---------------------------------------------------------------------------------------|
G|--6666666666666666-13131313131313131313131313131313-1616161616161616-14141414-13131313-|
D|--6666666666666666-x-x-x-x-x-x-x-x-x-x-x-x-x-x-x-x--x-x-x-x-x-x-x-x--x-x-x-x--x-x-x-x--|
A|--4444444444444444-11111111111111111111111111111111-1414141414141414-12121212-11111111-|
E|---------------------------------------------------------------------------------------|

e|----------------------------------------------|
B|----------------------------------------------|
G|----9-4-444444----9-4-444444----9-4-444444--6-|
D|--7-9-4-444444--7-9-4-444444--7-9-4-444444--6-|
A|--7-7-2-222222--7-7-2-222222--7-7-2-222222--4-|
E|--5-------------5-------------5---------------|
          ******        ******        ******

Have fun!
Related for Zapatista Dont Give Up tab