Song name
# A B C D E F G H I J K L M N O P Q R S T U V W X Y Z

Anti-flag - Confused Youth tab

Anti-flag
Confused youth


[00:06] Intro 1:
e|-----------------------------------------------------------|
B|-----------------------------------------------------------|
G|-----------------------------------------------------------|
D|------x--x--xx-Pickslide-----------------------------------|
A|-xx---x--x--xx-Pickslide-----------------------------------|
E|-xx--------------------------------------------------------|

[00:14] Intro 2:
e|-----------------------------------------------------------| 2x
B|-----------------------------------------------------------|
G|-66666666--------------------------------------------------|
D|-66666666-7777-9999----------------------------------------|
A|-44444444-7777-9999----------------------------------------|
E|----------5555-7777----------------------------------------|

[00:22] Intro 3:
e|-----------------------------------------------------------|
B|-----7--------------7-------------7---------7--------------|
G|-6-8----8-7-8---6-8---8-7-8---6-8---8---6-8---8--8b-8b-8br-|
D|-----------------------------------------------------------|
A|-----------------------------------------------------------|
E|-----------------------------------------------------------|

[00:29] Verse 1:
e|-----------------------------------------------------------| 4x
B|-----------------------------------------------------------|
G|-66666666--------------------------------------------------|
D|-66666666-7777-9999----------------------------------------|
A|-44444444-7777-9999----------------------------------------|
E|----------5555-7777----------------------------------------|
PM ********

[00:42] Verse 2:
e|-----------------------------------------------------------|
B|-----------------------------------------------------------|
G|-----------------------------------------------------------|
D|-7777-5555-7777-7777---------------------------------------|
A|-7777-7777-7777-7777-Pickslide-----------------------------|
E|-5555-5555-5555-5555-Pickslide-----------------------------|

[00:46] Chorus(4x):
e|-----------------------------------------------------------|
B|-----------------------------------------------------------|
G|-66666666-66666666-----------------------------------------|
D|-66666666-66666666-77777777-99999999-----------------------|
A|-44444444-44444444-77777777-99999999-----------------------|
E|-------------------55555555-77777777-----------------------|
PM ******** ******** ******** ********

e|-----------------------------------------------------------|
B|-----------------------------------------------------------|
G|-66666666--------------------------------------------------|
D|-66666666-7777-9999----------------------------------------|
A|-44444444-7777-9999----------------------------------------|
E|----------5555-7777----------------------------------------|


[01:08] Intro 3

[01:15] Verse 1

[01:29] Verse 2

[01:33] Chorus

[01:54] Breakdown:
e|-----------------------------------------------------------|
B|-----------------------------------------------------------|
G|-6-66-66---------------------------------------------------|
D|-6-66-66-----------Pickslide-------------------------------|
A|-4-66-66-Pickslide-Pickslide-------------------------------|
E|---------Pickslide-----------------------------------------|

[03:27] Verse 1

[03:40] Verse 2

[03:44] Chorus (3x)

[04:05] Outro
e|-----------------------------------------------------------|
B|-----------------------------------------------------------|
G|-6666------------------------------------------------------|
D|-6666-7777-77-99-77-99--9-9--------------------------------|
A|-4444-7777-77-99-77-99--9-9--------------------------------|
E|------5555-55-77-55-77--7-7--------------------------------|
PM **** **** ** ** ** **  *

Tap to rate this tab
 
# A B C D E F G H I J K L M N O P Q R S T U V W X Y Z