Song name
# A B C D E F G H I J K L M N O P Q R S T U V W X Y Z

Anti-flag - The Economy Is Sufferinglet It Die tab

The Economy is Suffering..Let it Die.
Anti-Flag.
good song. easy song. shouldnt be hard.
INTRO/VERSE
e-----------------|
B-----------------|
G-6-3-------------|
D-6-3-4-----------|
A-4-1-4-----------|
E-----2-----------|

INTRO SOLO
e------------------------------------------14-16-14--|
B----------------------11-11-10-10-13-13-13----------|
G-88-10h8-6)-88-10h8-6)------------------------------|
D----------------------------------------------------|
A----------------------------------------------------|
E----------------------------------------------------|

e--------------------------------------------------------|
B----------------------11-11-10-10-13-13-13-8-8----------|
G-88-10h8-6)-88-10h8-6)-------------------------11-11----|
D--------------------------------------------------------|
A--------------------------------------------------------|
E--------------------------------------------------------|

VERSE
e-----------------|
B-----------------|
G-6-3-------------|
D-6-3-4-----------|palm mute
A-4-1-4-----------|
E-----2-----------|

e------------------------|
B------------------------|
G-18-18-18-18--11__6___--|
D-18-18-18-18--x___x___--|
A-16-16-16-16--9___4___--|
E------------------------|

CHORUS
e------------------|
B------------------|
G-6----------------|
D-6-6-8-4----------|x2 last time palm mute the last chord
A-4-6-8-4----------|
E---4-6-2----------|

INTRO SOLO
VERSE

"WE'RE SO FUCKED" PART
e----------------------------|
B----------------------------|
G-------------11-------------|
D-8-6-4--8-11-11-8-6-4-6-4---|
A-8-6-4--8-11-9--8-6-4-6-4---|
E-6-4-2--6-9-----6-4-2-4-2---|

CHORUS
SAME CHORDS FOR THE "CITIES BURN DOWN" PART

ENDING
e-------------------|
B-------------------|
G-------------------|
D-8-6-4-8_6_44_-----|
A-8-6-4-8_6_44_-----|
E-6-4-2-6_4_22_-----|
Tap to rate this tab
# A B C D E F G H I J K L M N O P Q R S T U V W X Y Z