Song name
# A B C D E F G H I J K L M N O P Q R S T U V W X Y Z

Anti-flag - Sodom Gomorrah Washington Dc Sheep In Shepherds Clothing tab

Pretty easy song to play :) have fun

Intro

eb|------------------------------------------------|
Bb|------------------------------------------------|
Gb|-9----------------------------------------------|
Db|-9-----------------------Pickslide--------------|
Ab|-7----------------------------------------------|
Eb|------------------------------------------------|


Intro II

Git1
eb|------------------------------------------------|
Bb|------------------------------------------------|
Gb|--9999------55555555----------------------------|
Db|~-9999-7777-55555555----------------------------| x2
Ab|--7777-7777-33333333----------------------------|
Eb|-------5555-------------------------------------|

Git2
eb|--------------------------------10---------------|
Bb|-----------12------------------------------------|
Gb|-9-12-9-12----12-9-12-9-12-9-12----12-9-12-------| x2
Db|-------------------------------------------------|
Ab|-------------------------------------------------|
Eb|-------------------------------------------------|

Verse


e|------------------------------------------------|
B|------------------------------------------------|
G|-9-999999----------5-5555555555-54--------------|
D|-9-999999-7-777777-5-5555555555-54--------------| x4
A|-7-777777-7-777777-3-3333333333-32--------------|
E|----------5-555555------------------------------|
     ......   ......   ..........  /


Pre-Chorus

e|-----------0----------------------------------|
B|-----------0----------------------------------|
G|-9---------0--------9-------9999-9999-99------| not sure about that
D|-9---------2--------9-------9999-9999-99------|
A|-7---------2--------7-------7777-7777-77------|
E|-----------0----------------------------------|


Chorus

Git1
eb|------------------------------------------------|
Bb|------------------------------------------------|
Gb|--9999------55555555----------------------------|
Db|~-9999-7777-55555555----------------------------| x3
Ab|--7777-7777-33333333----------------------------|
Eb|-------5555-------------------------------------|

Git2 (comes in the 3rd time)

eb|------------------------------------------------|
Bb|------------------------------------------------|
Gb|------------------------------------------------|
Db|~---9--9------------5--5--5--5------------------| 
Ab|--7--7-----7--7---3--3--3--3--------------------|
Eb|---------5--5-----------------------------------|

Intro II


Git1
eb|------------------------------------------------|
Bb|------------------------------------------------|
Gb|--9999------55555555----------------------------|
Db|~-9999-7777-55555555----------------------------| x2
Ab|--7777-7777-33333333----------------------------|
Eb|-------5555-------------------------------------|

Git2
eb|--------------------------------10---------------|
Bb|-----------12------------------------------------|
Gb|-9-12-9-12----12-9-12-9-12-9-12----12-9-12-------| x2
Db|-------------------------------------------------|
Ab|-------------------------------------------------|
Eb|-------------------------------------------------|


Verse


e|------------------------------------------------|
B|------------------------------------------------|
G|-9-999999----------5-5555555555-54--------------|
D|-9-999999-7-777777-5-5555555555-54--------------| x4
A|-7-777777-7-777777-3-3333333333-32--------------|
E|----------5-555555------------------------------|
     ......   ......   ..........  /




Pre-Chorus

e|-----------0----------------------------------|
B|-----------0----------------------------------|
G|-9---------0--------9-------9999-9999-99------| 
D|-9---------2--------9-------9999-9999-99------|
A|-7---------2--------7-------7777-7777-77------|
E|-----------0----------------------------------|


Chorus

Git1
eb|------------------------------------------------|
Bb|------------------------------------------------|
Gb|--9999------55555555----------------------------|
Db|~-9999-7777-55555555----------------------------| x4  !
Ab|--7777-7777-33333333----------------------------|
Eb|-------5555-------------------------------------|

Git2 (comes in the 3rd time, play two times)

eb|------------------------------------------------|
Bb|------------------------------------------------|
Gb|------------------------------------------------|
Db|~---9--9------------5--5--5--5------------------| 
Ab|--7--7-----7--7---3--3--3--3--------------------|
Eb|---------5--5-----------------------------------|

Bridge



eb|----------------------------------------------------------|
Bb|----------------------------------------------------------|
Gb|-x9-99999999--x5-55555555---------------------------------| x2
Db|-x9-99999999--x5-55555555--x7-77777777----5--5--7--7------|
Ab|-x7-77777777--x3-33333333--x7-77777777--3--3--5--5--------|
Eb|---------------------------x5-55555555--------------------|



Pre-Chorus

e|-----------0----------------------------------|
B|-----------0----------------------------------|
G|-9---------0--------9-------9999-9999-99------| 
D|-9---------2--------9-------9999-9999-99------|
A|-7---------2--------7-------7777-7777-77------|
E|-----------0----------------------------------|


Solo: 

Git1
eb|------------------------------------------------|
Bb|------------------------------------------------|
Gb|--9999------55555555----------------------------|
Db|~-9999-7777-55555555----------------------------| x4  
Ab|--7777-7777-33333333----------------------------|
Eb|-------5555-------------------------------------|

haven't worked out the solo yet, maybe later


Chorus 

Git1
eb|------------------------------------------------|
Bb|------------------------------------------------|
Gb|--9999------55555555----------------------------|
Db|~-9999-7777-55555555----------------------------| x5  !
Ab|--7777-7777-33333333----------------------------|
Eb|-------5555-------------------------------------|

Git2 (comes in the 3rd time, play three times)

eb|------------------------------------------------|
Bb|------------------------------------------------|
Gb|------------------------------------------------|
Db|~---9--9------------5--5--5--5------------------| 
Ab|--7--7-----7--7---3--3--3--3--------------------|
Eb|---------5--5-----------------------------------|


Outro

eb|---------------|----|--------------------|
Bb|---------------|----|--------------------|
Gb|-9999-9999-99--|----|-999999-9-----------|
Db|-9999-9999-99--|--x3|-999999-9-----------|
Ab|-7777-7777-77--|----|-777777-7-----------|
Eb|---------------|----|--------------------|


might be one or two mistakes in it, this is what i can hear...  Please comment, 
then i can correct it
Tap to rate this tab
# A B C D E F G H I J K L M N O P Q R S T U V W X Y Z