Song name
# A B C D E F G H I J K L M N O P Q R S T U V W X Y Z

Anti-flag - Power To The Peaceful tab

TUNED 1/2 STEP DOWN!
i just wrote down the regular tuning in the tab but its
a 1/2 step down.

INTRO
e----------------------------|
B----------------------------|
G-------77----------77___----|
D-22-77-77-77-22-77-77___----|
A-22-77-55-77-22-77-55___----|
E-00-55----55-00-55----------|

VERSE
e--------------------|
B--------------------|
G-------77-----------|
D-22-77-77-77--------|x6
A-22-77-55-77--------|
E-00-55----55--------|

e-----------------|
B-----------------|
G-5___7___>>>>>>--
D-5___7___>>>>>>--
A-3___5___>>>>>>--
E-----------------

CHORUS
e--------------------|
B--------------------|
G-------77-----------|
D-22-77-77-77--------|x2
A-22-77-55-77--------|
E-00-55----55--------|

e------------------------------------------|
B------------------------------------------|
G-----------7__----------------------------|
D-22__-77__-7__------x2 second time hit 11-| on the B string
A-22__-77__-5__----------------------------|  twice and bend it
E-00__-55__--------------------------------|

VERSEx2(palm mute)
PRE-CHORUSx1
CHORUSx4

BRIDGEx4(palm mute it 2 time and let it ring 2 times)
e-------------|
B-------------|
G---5---7-----|
D-2-5-5-7-----|
A-2-3-5-5-----|
E-0---3-------|

GUTIAR 1
e-------------|
B-------------|
G---5---7-----|
D-2-5-5-7-----|
A-2-3-5-5-----|
E-0---3-------|

GUITAR 2
e12--12-----|
B--12--12---|
G-----------|x8
D-----------|
A-----------|
E-----------|

GUITAR 2
e12------------|
B--12-10 12----|
G--------------|x6(last time hold the 12 on the e string)
D--------------|
A--------------|
E--------------|

ill do the solo later i couldnt figure it out

VERSEx4
PRE-CHORUSx1
CHORUSx20(i think. there are a couple different rythms but they are easy)

ENDING
e----------------------|
B----------------------|
G-77----99-7-9__-------|
D-77-77-99-7-9__-------|
A-55-77-77-5-7__-------|
E----55----------------|
Tap to rate this tab
# A B C D E F G H I J K L M N O P Q R S T U V W X Y Z