Song name
# A B C D E F G H I J K L M N O P Q R S T U V W X Y Z

Anti-flag - No War Without Warriers How Do You Sleep tab

-------------------------------------------------------------------------------
			     No War Without Warriors (How Do You Sleep) - Anti-Flag
-------------------------------------------------------------------------------
Tabbed by:PT-E
Email:

Tuning: 1/2 step down

Intro
 Guitar 1  4x 
e|---------------------------------------------------------------------------|
B|---------------------------------------------------------------------------|
G|-------------------------------------------------8-8-8-8-8-8-8-8-----------|
D|-5-5-5-5-5-5-5-5-----------------5-5-5-5-5-5-5-5-8-8-8-8-8-8-8-8-----------|
A|-3-3-3-3-3-3-3-3-4-4-4-4-4-4-4-4-3-3-3-3-3-3-3-3-6-6-6-6-6-6-6-6-----------|
E|-----------------2-2-2-2-2-2-2-2-------------------------------------------|
 Guitar 2  3x    
e|-8---8---14----14----8---8---11----11----------|---8~--|
B|---8---8----14----14---8---8----11----11-------|---8~--|
G|-----------------------------------------------|-------|
D|-----------------------------------------------|-------|
A|-----------------------------------------------|-------|
E|-----------------------------------------------|-------|


Verse 4x
e|---------------------------------------------------------------------------|
B|---------------------------------------------------------------------------|
G|------------------------------------------------111111--101010-------------|
D|------------------------------------------------111111--101010--10---------|
A|-1010101010101010101010101010101010101010101010-9-9-9---8-8-8---10---------|
E|-8-8-8-8-8-8-8-8-8-8-8-8-8-8-8-8-8-8-8-8-8-8-8------------------8----------|
   x x x x x x x x x x x x x x x x x x x x x x x

Chorus
 Guitar 1
e|---------------------------------------------------------------------------|
B|---------------------------------------------------------------------------|
G|---------------------------------------------------------------------------|
D|-----------------101010-111111------------------101010101010---------------|
A|-101010-13131313-8-8-8--9-9-9---101010-13131313-8-8-8-8-8-8----------------|
E|-8-8-8--11111111----------------8-8-8--11111111----------------------------|

e|---------------------------------------------------------------------------|
B|---------------------------------------------------------------------------|
G|---------------------------------------------------------------------------|
D|-----------------101010-111111---------------------------------------------|
A|-101010-13131313-8-8-8--9-9-9--4-4-4-4-4-4-4-------------------------------|
E|-8-8-8--11111111---------------2-2-2-2-2-2-2-------------------------------|

 Guitar 2
e|---------------------------------------------------------------------------|
B|---------------------------------------------------------------------------|
G|-5-5-5--8-8-8-8--101010-111111--5-5-5--8-8-8-8--111111111111---------------|
D|-x-x-x--x-x-x-x--x-x-x--x-x-x---x-x-x--x-x-x-x--x-x-x-x-x-x----------------|
A|-3-3-3--6-6-6-6--8-8-8--9-9-9---3-3-3--6-6-6-6--8-8-8-8-8-8----------------|
E|---------------------------------------------------------------------------|

e|---------------------------------------------------------------------------|
B|---------------------------------------------------------------------------|
G|-5-5-5--8-8-8-8--101010-111111-18181818181818------------------------------|
D|-x-x-x--x-x-x-x--x-x-x--x-x-x--xxxxxxxxxxxxxx------------------------------|
A|-3-3-3--6-6-6-6--8-8-8--9-9-9--16161616161616------------------------------|
E|---------------------------------------------------------------------------|



e|---------------------------------------------------------------------------|
B|---------------------------------------------------------------------------|
G|---------------------------------------------------------------------------|
D|-1111111111-10-5-5-5-5-5-8--1111111111-10-5-5-5-5-5-8----------------------|
A|-9-9-9-9-9--8--3-3-3-3-3-6--9-9-9-9-9--8--3-3-3-3-3-6----------------------|
E|---------------------------------------------------------------------------|

e|---------------------------------------------------------------------------|
B|---------------------------------------------------------------------------|
G|---------------------------------------------------------------------------|
D|-1111111111-10-5-5-5-5-5-8-8-8-8-8-8-8-8-----------------------------------|
A|-9-9-9-9-9--8--3-3-3-3-3-6-6-6-6-6-6-6-6--8-8--10~-------------------------|
E|------------------------------------------6-6--8-~-------------------------|

Verse 4x
 Guitar 1
e|---------------------------------------------------------------------------|
B|---------------------------------------------------------------------------|
G|------------------------------------------------111111--101010-------------|
D|------------------------------------------------111111--101010--10---------|
A|-1010101010101010101010101010101010101010101010-9-9-9---8-8-8---10---------|
E|-8-8-8-8-8-8-8-8-8-8-8-8-8-8-8-8-8-8-8-8-8-8-8------------------8----------|
   x x x x x x x x x x x x x x x x x x x x x x x
 Guitar 2 2x
e|---------------------------------------------------------------------------|
B|---------------------------------------------------------------------------|
G|-17-17-x-x-17-17-x-x-17-17-x-x-17-17-x-x-17-17-----------------------------|
D|-------x-x-------x-x-------x-x-------x-x-----------------------------------|
A|-15-15-x-x-15-15-x-x-15-15-x-x-15-15-x-x-15-15-----------------------------|
E|---------------------------------------------------------------------------|


Chorus
 Guitar 1
e|---------------------------------------------------------------------------|
B|---------------------------------------------------------------------------|
G|---------------------------------------------------------------------------|
D|-----------------101010-111111------------------101010101010---------------|
A|-101010-13131313-8-8-8--9-9-9---101010-13131313-8-8-8-8-8-8----------------|
E|-8-8-8--11111111----------------8-8-8--11111111----------------------------|

e|---------------------------------------------------------------------------|
B|---------------------------------------------------------------------------|
G|---------------------------------------------------------------------------|
D|-----------------101010-111111---------------------------------------------|
A|-101010-13131313-8-8-8--9-9-9--4-4-4-4-4-4-4-------------------------------|
E|-8-8-8--11111111---------------2-2-2-2-2-2-2-------------------------------|

 Guitar 2
e|---------------------------------------------------------------------------|
B|---------------------------------------------------------------------------|
G|-5-5-5--8-8-8-8--101010-111111--5-5-5--8-8-8-8--111111111111---------------|
D|-x-x-x--x-x-x-x--x-x-x--x-x-x---x-x-x--x-x-x-x--x-x-x-x-x-x----------------|
A|-3-3-3--6-6-6-6--8-8-8--9-9-9---3-3-3--6-6-6-6--8-8-8-8-8-8----------------|
E|---------------------------------------------------------------------------|

e|---------------------------------------------------------------------------|
B|---------------------------------------------------------------------------|
G|-5-5-5--8-8-8-8--101010-111111-18181818181818------------------------------|
D|-x-x-x--x-x-x-x--x-x-x--x-x-x--xxxxxxxxxxxxxx------------------------------|
A|-3-3-3--6-6-6-6--8-8-8--9-9-9--16161616161616------------------------------|
E|---------------------------------------------------------------------------|

 Intro 2x
e|-8---8---14----14----8---8---11----11----------------|
B|---8---8----14----14---8---8----11----11-------------|
G|-----------------------------------------------------|
D|-----------------------------------------------------|
A|-----------------------------------------------------|
E|-----------------------------------------------------|

 Guitar 1  2x
e|---------------------------------------------------------------------------|
B|---------------------------------------------------------------------------|
G|---------------------------------------------------------------------------|
D|-5-5-5-5-5-5-5-5----5-5-5-5-5-5-5-5--8--5-5-5-5-5-5-5-5----5-5-5-5-8-8-8-8-|
A|-3-3-3-3-3-3-3-3-4--3-3-3-3-3-3-3-3--6--3-3-3-3-3-3-3-3-2--3-3-3-3-6-6-6-6-|
E|-----------------2--------------------------------------4------------------|
   x x x x x x x x    x x x x x x x x     x x x x x x x x
 Guitar 2  2x
e|---------------------------------------------------------------------------|
B|---------------------------------------------------------------------------|
G|-17171717171717--11-17171717171717---8--17171717171717--11-8-8-8-8-11111111|
D|-xxxxxxxxxxxxxx--x--xxxxxxxxxxxxxx---x--xxxxxxxxxxxxxx--x--x-x-x-x-xxxxxxxx|
A|-15151515151515--9--15151515151515---6--15151515151515--9--6-6-6-6-9-9-9-9-|
E|---------------------------------------------------------------------------|


e|---------------------------------------------------------------------------|
B|---------------------------------------------------------------------------|
G|-17-----111111--101010----17-----111111-101010-----------------------------|
D|-xx-----x-x-x---x-x-x-----xx-----x-x-x--x-x-x------------------------------|
A|-15-----9-9-9---8-8-8-----15-----9-9-9--8-8-8------------------------------|
E|---------------------------------------------------------------------------|

e|---------------------------------------------------------------------------|
B|---------------------------------------------------------------------------|
G|---------------------------------------------------------------------------|
D|---------111111-101010-----------111111-101010-----------------------------|
A|-10------9-9-9--8-8-8-----10-----9-9-9--8-8-8------------------------------|
E|-8------------------------8------------------------------------------------|


Chorus
 Guitar 1
e|---------------------------------------------------------------------------|
B|---------------------------------------------------------------------------|
G|---------------------------------------------------------------------------|
D|-----------------101010-111111------------------101010101010---------------|
A|-101010-13131313-8-8-8--9-9-9---101010-13131313-8-8-8-8-8-8----------------|
E|-8-8-8--11111111----------------8-8-8--11111111----------------------------|

e|---------------------------------------------------------------------------|
B|---------------------------------------------------------------------------|
G|---------------------------------------------------------------------------|
D|-----------------101010-111111---------------------------------------------|
A|-101010-13131313-8-8-8--9-9-9--4-4-4-4-4-4-4-------------------------------|
E|-8-8-8--11111111---------------2-2-2-2-2-2-2-------------------------------|

 Guitar 2
e|---------------------------------------------------------------------------|
B|---------------------------------------------------------------------------|
G|-5-5-5--8-8-8-8--101010-111111--5-5-5--8-8-8-8--111111111111---------------|
D|-x-x-x--x-x-x-x--x-x-x--x-x-x---x-x-x--x-x-x-x--x-x-x-x-x-x----------------|
A|-3-3-3--6-6-6-6--8-8-8--9-9-9---3-3-3--6-6-6-6--8-8-8-8-8-8----------------|
E|---------------------------------------------------------------------------|

e|---------------------------------------------------------------------------|
B|---------------------------------------------------------------------------|
G|-5-5-5--8-8-8-8--101010-111111-18181818181818------------------------------|
D|-x-x-x--x-x-x-x--x-x-x--x-x-x--xxxxxxxxxxxxxx------------------------------|
A|-3-3-3--6-6-6-6--8-8-8--9-9-9--16161616161616------------------------------|
E|---------------------------------------------------------------------------|



  2x
e|---------------------------------------------------------------------------|
B|---------------------------------------------------------------------------|
G|---------------------------------------------------------------------------|
D|-1111111111-10-5-5-5-5-5-8--1111111111-10-5-5-5-5-5-8----------------------|
A|-9-9-9-9-9--8--3-3-3-3-3-6--9-9-9-9-9--8--3-3-3-3-3-6----------------------|
E|---------------------------------------------------------------------------|

e|---------------------------------------------------------------------------|
B|---------------------------------------------------------------------------|
G|-------------------------------------------5--5--5--5--5-------------------|
D|-1111111111-10-5-5-5-5-5-8-8-8-8-8-8-8-8---5--5--5--5--5-------------------|
A|-9-9-9-9-9--8--3-3-3-3-3-6-6-6-6-6-6-6-6---3--3--3--3--3-------------------|
E|---------------------------------------------------------------------------|



| /  slide up
| \  slide down
| h  hammer-on
| p  pull-off
| +  harmonic
| x  Mute note
===============================================================================
Tap to rate this tab
 
# A B C D E F G H I J K L M N O P Q R S T U V W X Y Z