Song name
# A B C D E F G H I J K L M N O P Q R S T U V W X Y Z

Anti-flag - Thats Youth tab

Oi guys :D This is my first tab, so comments please!
I searched this tab a while ago, but only found some pretty crappy versions.
So, I thought I'd put my version up.
This is pretty much correct from what I can hear.
If you beg to differ, feel free to email me your corrections (cosea001@hotmail.co.uk)
I don't believe in song order lists at the end of the tab.
So this song has been transcribed in completely in order for easy following :D

. = palm mute

intro
E|-----------------------------------------|
B|-----------------------------------------|
G|-----------------------------------------|
D|-----------------------------------------|
A|-99999988-------99-----------------------|
E|----------999999-------4444446677777744--|
   ........ ........     ................
E|-----------------------------------|
B|-----------------------------------|
G|-----------------------------------|
D|-----------------------66666688-9--|
A|-99999988-------99-----66666688-9--|
E|----------999999-------44444466-7--|
   ........ ........     ........

pre-verse

E|---------------------------------------------|
B|---------------------------------------------|
G|---------------------------------------------|
D|-11-11-11-11-11-11-10-10---------------------|
A|--9--9--9--9--9--9--8--8--11-11-11-11-11-11--|
E|---------------------------9--9--9--9--9--9--|

E|--------------------------------|
B|--------------------------------|
G|--------------------------------|
D|-11-11-66666688996--  pre-verse-| (x2)
A|--9--9-66666688996--------------|
E|-------44444466774--------------|

verse

E|------------------------------------------|
B|------------------------------------------|
G|-11-11-11-11-------------9-9-9-9----------|
D|-11-11-11-11-11-11-11-11-9-9-9-9-9-9-9-9--|
A|--9--9--9--9-11-11-11-11-7-7-7-7-9-9-9-9--|
E|--------------9--9--9--9---------7-7-7-7--|

E|---------------------------------------------|
B|---------------------------------------------|
G|-11-11-11-11-------------9-9-9-9-------------|
D|-11-11-11-11-11-11-11-11-9-9-9-9-66666688-9--|
A|--9--9--9--9-11-11-11-11-7-7-7-7-66666688-9--|
E|--------------9--9--9--9---------44444466-7--|
                                   ........
pre-chorus

E|----------------------------------------------|
B|----------------------------------------------|
G|----------------------------------------------|
D|11-11-11-11-11-11-----------------------------|
A|-9--9--9--9--9--9-11-11-11-11-11-11-66669999--|
E|-------------------9--9--9--9--9--9-44447777--|

E|----------------------------|
B|----------------------------|
G|----------------------------|
D|----------------------------|
A|-4444444444444444666666889--|
E|-2222222222222222444444667--|
   ................

chorus

E|-------------------------------------------------------------------|
B|-------------------------------------------------------------------|
G|-------------------------------------------------------------------|
D|-11-11-11-11-11-11-10-10-------------------11-11-------------------|
A|--9--9--9--9--9--9--8--8-11-11-11-11-11-11--9--9-6666668899999966--|
E|--------------------------9--9--9--9--9--9-------4444446677777744--| chorus (x2)

intro
E|-----------------------------------------|
B|-----------------------------------------|
G|-----------------------------------------|
D|-----------------------------------------|
A|-99999988-------99-----------------------|
E|----------999999-------4444446677777744--|
   ........ ........     ................
E|------------------------------------|
B|------------------------------------|
G|------------------------------------|
D|-----------------------666666889----|
A|-99999988-------99-----666666889----|
E|----------999999-------444444667----|
   ........ ........

pre-verse

E|---------------------------------------------|
B|---------------------------------------------|
G|---------------------------------------------|
D|-11-11-11-11-11-11-10-10---------------------|
A|--9--9--9--9--9--9--8--8--11-11-11-11-11-11--|
E|---------------------------9--9--9--9--9--9--|

E|--------------------------------|
B|--------------------------------|
G|--------------------------------|
D|-11-11-66666688996--  pre-verse-| (x2)
A|--9--9-66666688996--------------|
E|-------44444466774--------------|

verse

E|-------------------------------------------|
B|-------------------------------------------|
G|-11-11-11-11-------------9-9-9-9-----------|
D|-11-11-11-11-11-11-11-11-9-9-9-9-9-9-9-9---|
A|--9--9--9--9-11-11-11-11-7-7-7-7-9-9-9-9---|
E|--------------9--9--9--9---------7-7-7-7---|

E|---------------------------------------------|
B|---------------------------------------------|
G|-11-11-11-11-------------9-9-9-9-------------|
D|-11-11-11-11-11-11-11-11-9-9-9-9-66666688-9--|
A|--9--9--9--9-11-11-11-11-7-7-7-7-66666688-9--|
E|--------------9--9--9--9---------44444466-7--|
                                   ........
pre-chorus

E|----------------------------------------------|
B|----------------------------------------------|
G|----------------------------------------------|
D|11-11-11-11-11-11-----------------------------|
A|-9--9--9--9--9--9-11-11-11-11-11-11-66669999--|
E|-------------------9--9--9--9--9--9-44447777--|

E|----------------------------|
B|----------------------------|
G|----------------------------|
D|----------------------------|
A|-4444444444444444666666889--|
E|-2222222222222222444444667--|
   ................

chorus

E|-----------------------------------------------------------------------|
B|-----------------------------------------------------------------------|
G|-----------------------------------------------------------------------|
D|-11-11-11-11-11-11-10-10-------------------11-11-------------------11--|
A|--9--9--9--9--9--9--8--8-11-11-11-11-11-11--9--9-6666668899999966---9--|
E|--------------------------9--9--9--9--9--9-------4444446677777744------| chorus (x4)

bridge (guitar 1)

E|--------------------------------------|
B|--------------------------------------|
G|--------6-----------------------------|
D|-4444446---------6--------------------|
A|----------4444446--------6--------11--| (x3)
E|------------------4444446--7777779----|
   ...................................

E|--------------------------------|
B|--------------------------------|
G|--------6-----------------------|
D|-4444446---------6---------9-4--|
A|----------4444446--------6-9-4--|
E|------------------4444446--7-2--|

E|------|
B|------|
G|66-6--|
D|44-4--|
A|------| (x16)
E|------|

E|----------------------------|
B|----------------------------|
G|----------------------------|
D|----------------------------|
A|-4444444444444444666666889--|
E|-2222222222222222444444667--|
   ................

bridge (guitar 2)

E|------------------------------------------|
B|------------------------------------------|
G|-10--10-10--10-10--10-10--10-10--10-10----|
D|---10-----10-----10-----10-----10-----10--|
A|------------------------------------------|
E|------------------------------------------|

E|-------------------------------------------------|
B|-------------------------------------------------|
G|11-11-11-11-11-11-10-10-8888886644444433666666---|
D|----------------------------------------------6--|
A|-------------------------------------------------|
E|-------------------------------------------------|

E|--------|
B|-9------|
G|--11----|
D|----11--| (x3)
A|--------|
E|--------|

chorus

E|-----------------------------------------------------------------------|
B|-----------------------------------------------------------------------|
G|-----------------------------------------------------------------------|
D|-11-11-11-11-11-11-10-10-------------------11-11-------------------11~-|
A|--9--9--9--9--9--9--8--8-11-11-11-11-11-11--9--9-6666668899999966---9~-|
E|--------------------------9--9--9--9--9--9-------4444446677777744------| chorus (x4)

Hells yeah :)
Tap to rate this tab
 
# A B C D E F G H I J K L M N O P Q R S T U V W X Y Z