Song name
# A B C D E F G H I J K L M N O P Q R S T U V W X Y Z

Anti-flag - The Old Guard tab

Anti-Flag - The Old Guard

by Morris Du

* = PM

Intro
e|-----------|
B|-----------|
G|-6---------|
D|-6~-6--6---| 2X
A|-8--6~-6~--|
E|----8--4---|

This Is In The Bass Part
    **     *****   *****   *****   *****   *****   *****
e|----3-|---------------------------------------3---------------------|
B|-444--|-4444444-4444444-444444--4444444-444444--4444444-4444444444--|
G|------|-------------------------------------------------------------|
D|------|-------------------------------------------------------------|
A|------|-------------------------------------------------------------|
E|------|-------------------------------------------------------------|

Pre-Veres
e|-3331113331113311-333111333111334-333111333111--444333111---1-3|---|
B|----------------------------------------------4----------444---|4~-|
G|---------------------------------------------------------------|---|
D|---------------------------------------------------------------|---| 2X
A|---------------------------------------------------------------|---|
E|---------------------------------------------------------------|---|

Verse
     ************   ************    ************************  **
e|-----------------------------------------------------------|-----------|
B|-----------------------------------------------------------|-----------|
G|-8-888888888888--------------------------------------------|-----------|
D|-8-888888888888-8-888888888888-10-101010101010101010101010-|-66-6------| 2X
A|-6-666666666666-8-888888888888-10-101010101010101010101010-|-66-6-[4X]-|
E|----------------6-666666666666-8--8-8-8-8-8-8-8-8-8-8-8-8--|-44-4------|

Pre-Chorus
e|------------------------------------------------|
B|------------------------------------------------|
G|----------------8-------------------------------|
D|-10------8------8-[4X]8------6------10------8---|
A|-10-[8X]-8-[8X]-6-----8-[4X]-6-[8x]-10-[8X]-8~--|
E|-8-------6------------6------4------8-------6---|

Chorus 
                                                         ***********
e|---------------------|  |------------------------------------------|
B|---------------------|  |-8----------------------------------------|
G|-8-------------------|  |-8-[4X]----------------88-----------------|
D|-8-[4X]-8------6-----|2X|-6------8------10-8-6--88~-8--66666666666-|
A|-6------8-[4X]-6-[8X]|  |--------8-[4X]-10-8-6--66--8~-66666666666-|
E|--------6------4-----|  |--------6------8--6-4------6--44444444444-|

Pre-Verse
e|-3331113331113311-333111333111334-333111333111--444333111---1-3----|
B|----------------------------------------------4----------444----4~-|
G|-------------------------------------------------------------------|
D|-------------------------------------------------------------------|
A|-------------------------------------------------------------------|
E|-------------------------------------------------------------------|

2dn Verse
e|----|----|
B|-8--|-8--|
G|-8~-|-8~-|
D|-6--|-6--|
A|----|----|

Pre-Chorus
e|------------------------------------------------|
B|------------------------------------------------|
G|----------------8-------------------------------|
D|-10------8------8-[4X]8------6------10------8---|
A|-10-[8X]-8-[8X]-6-----8-[4X]-6-[8x]-10-[8X]-8~--|
E|-8-------6------------6------4------8-------6---|

Chorus
                                                         
e|---------------------|  |---------------------------------|
B|---------------------|  |-8-------------------------------|
G|-8-------------------|  |-8-[4X]----------------88--------|
D|-8-[4X]-8------6-----|2X|-6------8------10-8-6--88~-8--6--|
A|-6------8-[4X]-6-[8X]|  |--------8-[4X]-10-8-6--66--8~-6~-|
E|--------6------4-----|  |--------6------8--6-4------6--4--|

Bridge
                   *************
e|----------|    |-------11113333-|    |------11113333------1111333-3/4/3--|
B|----------|    |-44444----------|    |-4444----------4444----------------|
G|-8--------|    |----------------|    |-----------------------------------|
D|-8~-8--6--|[4X]|----------------|[2X]|-----------------------------------|
A|-6--8~-6~-|    |----------------|    |-----------------------------------|
E|----6--4--|    |----------------|    |-----------------------------------|

Chorus
|------11113333------1111333-3/4/3-|------11113333-44-33-11--|
|-4444----------4444---------------|-4444-----------------4~-|
|----------------------------------|-------------------------|
|----------------------------------|-------------------------|
|----------------------------------|-------------------------|
|----------------------------------|-------------------------|

|------11113333------1111333-3/4/3-|------11113333-3/4/3-|
|-4444----------4444---------------|-4444----------------|
|----------------------------------|---------------------|
|----------------------------------|---------------------|
|----------------------------------|---------------------|
|----------------------------------|---------------------|

Pre-End
e|-3331113331113311-333111333111334-333111333111--444333111---1-3-|----|
B|----------------------------------------------4----------444----|-4~-|
G|----------------------------------------------------------------|----|
D|----------------------------------------------------------------|----|
A|----------------------------------------------------------------|----|
E|----------------------------------------------------------------|----|

The End
e|---------------|
B|-4-----------4-|
G|---7-5-7-5-3---|
D|---------------|
A|---------------|

By Morris Du

myspace.com/punxthemorris
Tap to rate this tab
# A B C D E F G H I J K L M N O P Q R S T U V W X Y Z