Song name
# A B C D E F G H I J K L M N O P Q R S T U V W X Y Z

Anti-flag - " A New Kind Of Army " tab

------------------
------------------
--6---9-9---------
--6-7-9-9---------
--4-7-7-6---------
----5-------------  Intro part let each note ring. play twice

palm mute. play each note 8 times. part 1

------------------
------------------
--6---------------
--6-7-------------
--4-7-------------
----5-------------

palm mute each note twice then play open twice. each note played 4 times in all part 2

------------------
------------------
--9--9------------
--9--9------------
--7--6------------
------------------

after you play the part 1 play part 2 like this.

------------------
-------9--------9-
--9--9--9--9--9--9
--9--------9------
--7--------6------
------------------
chorus

-----------------
--------9-----9--
--6---9--9--9--9-
--6-7-9---9-9---9
--4-7-7-----6----
----5------------  thats about it. you can figure the rest out for yourself.


Tap to rate this tab
# A B C D E F G H I J K L M N O P Q R S T U V W X Y Z