Song name
# A B C D E F G H I J K L M N O P Q R S T U V W X Y Z

Anti-flag - This Is The First Night tab

E----------------------------------------------------]
A----------------------------------------------------]
D-------------4-4-4-4--4-4-4-4--4-4-4-4--4-4-4-4-4-4-]
G-------------4-4-4-4--4-4-4-4--4-4-4-4--4-4-4-4-4-4-]
B-------------2-2-2-2--2-2-2-2--2-2-2-2--2-2-2-2-1-1-]
e------------0--------0--------0--------0------------]
  This is the first night, of the rest of our lives.


E---------------------------------------------------]
A---------------------------------------------------]
D--------------------------------9-9999---9-9999----]
G-------------6-6666---6-6666----9-9999---9-9999----]
B-------------6-6666---6-6666----7-7777---7-7777----]
e-------------4-4444---4-4444----0--------0---------]
  I can't help wonder, "How is it we're still alive?"
 

E----------------------------------------------------------]
A----------------------------------------------------------]
D--4-4-4-4-4-4-4-4-4-4-4-4-4-4-4-4-4-------------9-9-9-9...]
G--4-4-4-4-4-4-4-4-4-4-4-4-4-4-4-4-4-6-6-6-6-6-6-7-7-7-7...]
B--2-2-2-2-2-2-2-2-2-2-2-2-2-2-2-2-2-6-6-6-6-6-6-7-7-7-7...]
e------------------------------------4-4-4-4-4-4-----------]
  Welcome to the first night of the rest of our lives


Oh yeah, and I said

                                                  x x x x x x x
E---------------------------------------------------------------]
A---------------------------------------------------------------]
D--4---------------------------------4----------0-0-0-0-0-0-0-0-]
G--4---------------------------------4----------2-2-2-2-2-2-2-2-]
B--2---------------------------------1----------2-2-2-2-2-2-2-2-]
e--0---------------------------------0----------0-0-0-0-0-0=0=0-]
  Welcome to the first night of the rest of our lives


E---------------------------------------------------------------]
A---------------------------------------------------------------]
D--4--4-4-4-4-4-4-4-4-4-4-4-4-4-9--9-9-9-9-9-9-9-9-9-9----------]
G--4--4-4-4-4-4-4-4-4-4-4-4-4-4-9--9-9-9-9-9-9-9-9-9-9-6--6-6-6-]
B--2--2-2-2-2-2-2-2-2-2-2-2-2-2-7--7-7-7-7-7-7-7-7-7-7-6--6-6-6-]
E------------------------------------------------------4--4-4-4-]
  We stayed up all night long, laughing singing in the streets


E--------------------]
A--------------------]
D--------------------]
G--6-6-6-6-6-6-6-6-6-]
B--6-6-6-6-6-6-6-6-6-]
E--4-4-4-4-4-4-4-4-4-]
   Oh yeah, you know.






E------------------------------------------------------------------]
A------------------------------------------------------------------]
D--4--4-4-4-4-4-4-4-4-4-4-4-4-4-9--9-9-9-9-9-9-9-9-9-9-------------]
G--4--4-4-4-4-4-4-4-4-4-4-4-4-4-9--9-9-9-9-9-9-9-9-9-9-6--6-6-6-6-6]
B--2--2-2-2-2-2-2-2-2-2-2-2-2-2-7--7-7-7-7-7-7-7-7-7-7-6--6-6-6-6-6]
E------------------------------------------------------4--4-4-4-4-6]
 The Clash, Ramones, The Pogues. Our voices hoarse are bodies weak

E--------------------]
A--------------------]
D--------------------]
G--6-6-6-6-6-6-6-6-6-]
B--6-6-6-6-6-6-6-6-6-]
E--4-4-4-4-4-4-4-4-4-]
  And ready for sleep


E-----------------------------------------------------------]
A-----------------------------------------------------------]
D--------------------------------------9-9999-9-9999-9-9999-]
G--11-11-11-11-11-11-11-11-11-11-11-11-9-9999-9-9999-9-9999-]
B--11-11-11-11-11-11-11-11-11-11-11-11-7-7777-7-7777-7-7777-]
E--9--9--9--9--9--9--9--9--9--9--9--9-----------------------]
  Lean against me, wipe your blood shot eyes, as I wipe mine

                                             x x x x x x x x x x x
E---------------------------------------------------------------------]
A---------------------------------------------------------------------]
D---------------------------------------------------------------------]
G--11-11-11-11-11-11-11-11-11-11-11-11-11-11-2-2-2-2-2-2-2-2-2-2-2-222]
B--11-11-11-11-11-11-11-11-11-11-11-11-11-11-2-2-2-2-2-2-2-2-2-2-2-222]
E--9--9--9--9--9--9--9--9--9--9--9--9--9--9--0-0-0-0-0-0-0-0-0-0-0-000]
From these rooftops, we'll watch the sun rise, Ain't this the life?


E------------------------------------------------]
A------------------------------------------------]
D----------------4444---4444---4444---4444---4444]
G-222------------4444---4444---4444---4444---4444]
B-222------------2222---2222---2222---2222---1111]
e-000-----------0-----0------0------0------0-----]
Yeah it's the first night, of the rest of our lives


E----------------------------------------------------]
A----------------------------------------------------]
D---------------------------------9-9999---9-9999----]
G------6-6666---6-6666---6-6666---9-9999---9-9999----]
B------6-6666---6-6666---6-6666---7-7777---7-7777----]
e------4-4444---4-4444---4-4444---0--------0---------]
I can't help wonder, "How is it we're still alive?"


E----------------------------------------------------------------------------]
A----------------------------------------------------------------------------]
D--4-4444--4-4444--4-4444--4-4444--4-4444--4-444-9-9999-9-9999-9-9999-9-9999-]
G--4-4444--4-4444--4-4444--4-4444--4-4444--4-444-9-9999-9-9999-9-9999-9-9999-]
B--2-2222--2-2222--2-2222--2-2222--1-1111--1-111-7-7777-7-7777-7-7777-7-7777-]
e----------------------------------------------------------------------------]
 Welcome to the first night of the rest  of  our lives.



E---------------------------------------------------------------]
A---------------------------------------------------------------]
D-4----------------------------9------------------9-------------]
G-4----------------------------9------------6-----9-------------]
B-2----------------------------7------------6-----7-------------]
E-------------------------------------------4-------------------]
   With just half tank of gas, 150 miles to go. No cash, no food.


E-----------------------------------------------------][------------------------]
A-----------------------------------------------------][------------------------]
D-4-----------------------9---------------------------][---------9--------------]
G-4-----------------------9-----------------------6---][---------9--------------]
B-2-----------------------7-----------------------6---][---------7--------------]
e-------------------------------------------------4---][------------------------]
   We turn the engine off, every time we went downhill  And it's on with the show


E-----------------------------------------------------------]
A-----------------------------------------------------------]
D--------------------------------------9-9999-9-9999-9-9999-]
G--11-11-11-11-11-11-11-11-11-11-11-11-9-9999-9-9999-9-9999-]
B--11-11-11-11-11-11-11-11-11-11-11-11-7-7777-7-7777-7-7777-]
E--9--9--9--9--9--9--9--9--9--9--9--9-----------------------]
  I don't know whether to laugh or cry. Oh no, I don't

                                             x x x x x x x x x x x
E---------------------------------------------------------------------]
A---------------------------------------------------------------------]
D---------------------------------------------------------------------]
G--11-11-11-11-11-11-11-11-11-11-11-11-11-11-2-2-2-2-2-2-2-2-2-2-2-222]
B--11-11-11-11-11-11-11-11-11-11-11-11-11-11-2-2-2-2-2-2-2-2-2-2-2-222]
E--9--9--9--9--9--9--9--9--9--9--9--9--9--9--0-0-0-0-0-0-0-0-0-0-0-000]
   All   I    know    is    that   I   am   alive, I'm really alive.


E------------------------------------------------]
A------------------------------------------------]
D----------------4444---4444---4444---4444---4444]
G-222------------4444---4444---4444---4444---4444]
B-222------------2222---2222---2222---2222---1111]
e-000-----------0-----0------0------0------0-----]
And it's the first night, of the rest of our lives


E----------------------------------------------------]
A----------------------------------------------------]
D---------------------------------9-9999---9-9999----]
G------6-6666---6-6666---6-6666---9-9999---9-9999----]
B------6-6666---6-6666---6-6666---7-7777---7-7777----]
e------4-4444---4-4444---4-4444---0--------0---------]
I can't help wonder, "How is it  we're still alive?"


E----------------------------------------------------------------------------]
A----------------------------------------------------------------------------]
D--4-4444--4-4444--4-4444--4-4444--4-4444--4-444-9-9999-9-9999-9-9999-9-9999-]
G--4-4444--4-4444--4-4444--4-4444--4-4444--4-444-9-9999-9-9999-9-9999-9-9999-]
B--2-2222--2-2222--2-2222--2-2222--1-1111--1-111-7-7777-7-7777-7-7777-7-7777-]
e----------------------------------------------------------------------------]
 Welcome to the first night of the rest  of  our lives.


Oh yeah, and I said

E----------------------------------------------------------------------------]
A----------------------------------------------------------------------------]
D--4-4444--4-4444--4-4444--4-4444--4-4444--4-444-9-9999-9-9999-9-9999-9-9999-]
G--4-4444--4-4444--4-4444--4-4444--4-4444--4-444-9-9999-9-9999-9-9999-9-9999-]
B--2-2222--2-2222--2-2222--2-2222--1-1111--1-111-7-7777-7-7777-7-7777-7-7777-]
e----------------------------------------------------------------------------]
   welcome to the first night of the rest of our lives

E---------------------------------------------------]
A---------------------------------------------------]
D--9-9999-9-9999-9-9999-9-9999----------------------]
G--9-9999-9-9999-9-9999-9-9999--6-6666-6-6666-6-6666]
B--7-7777-7-7777-7-7777-7-7777--6-6666-6-6666-6-6666]
e-------------------------------4-4444-4-4444-4-4444]
   We  heard   you   here,  and jumped from the train


E----------------------------------------------------------]
A----------------------------------------------------------]
D--4-4444-4-4444-4-4444-9-9999-9-9999-9-9999-9-9999-9-9999-]
G--4-4444-4-4444-4-4444-9-9999-9-9999-9-9999-9-9999-9-9999-]
B--2-2222-2-2222-2-2222-7-7777-7-7777-7-7777-7-7777-7-7777-]
e----------------------------------------------------------]
   Ran  up  the tracks, all the while you're screaming back,


E------------------------------------------------------------]
A------------------------------------------------------------]
D-----------------------------------------------4-4444-4-4444]
G--11-11111111-11-11111111-6-6666-6-6666-6-6666-4-4444-4-4444]
B--11-11111111-11-11111111-6-6666-6-6666-6-6666-2-2222-2-2222]
e--9--9-9-9-9--9--9-9-9-9--4-4444-4-4444-4-4444--------------]
  "Kiss my ass!!!"   We're living our lives, I'm livin' yeah


E-----------------------------------------------------------------------------]
A-----------------------------------------------------------------------------]
D--4-4444-4-4444-9-9999-9-9999-9-9999-9-9999-9-9999-11-11-11-11-11-11-11-11-11]
G--4-4444-4-4444-9-9999-9-9999-9-9999-9-9999-9-9999-11-11-11-11-11-11-11-11-11]
B--2-2222-2-2222-7-7777-7-7777-7-7777-7-7777-7-7777-9--9--9--9--9--9--9--9--9-]
e-----------------------------------------------------------------------------]
   And  I'm doin fine,  oh yeah,  oh yeah I'm doin fine

                             x x           x x         x x  x
E------------------------------------------------------------------]
A------------------------------------------------------------------]
D---------------4----4444----4-4---4444----4-4---4444--4-4--4--4444]
G---------------4----4444----4-4---4444----4-4---4444--4-4--4--4444]
B---------------2----2222----2-2---2222----2-2---2222--2-2--1--1111]
e------------------------------------------------------------------]
   And it's the first night,    of the rest   of  our  lives.
                                                  (cres)
   x x         x x         x x         x x       x xxxx
E--------------------------------------------------------]
A--------------------------------------------------------]
D--4-4--4444---------------------------9-9--9999-4-4444--]
G--4-4--4444---6-6--6666---6-6--6666---9-9--9999-4-4444--]
B--1-1--1111---6-6--6666---6-6--6666---7-7--7777-2-2222--]
e--------------4-4--4444---4-4--4444---------------------]
   I can't help  wonder,  "How is it  we're still alive?"

E---------------------------------------------------]
A---------------------------------------------------]
D--4-4-4-4-4-4-4-4-4-4-4-4-4-4-4-4-4----------------]
G--4-4-4-4-4-4-4-4-4-4-4-4-4-4-4-4-4-6-6-6-6-6-6-6-6]
B--2-2-2-2-2-2-2-2-2-2-2-2-2-2-2-2-2-6-6-6-6-6-6-6-6]
e------------------------------------4-4-4-4-4-4-4-4]
  Welcome to the first night of the  rest.


E-------------------------------------------------------]
A-------------------------------------------------------]
D--9-9-9-9-9-9-9-9-9-9-9-9-4-4-4-4-4-4-4-4-4------------]
G--9-9-9-9-9-9-9-9-9-9-9-9-4-4-4-4-4-4-4-4-4-6-6-6-6-6-6]
B--7-7-7-7-7-7-7-7-7-7-7-7-2-2-2-2-2-2-2-2-2-6-6-6-6-6-6]
e--------------------------------------------4-4-4-4-4-4]
   Let's hope this night of life won't be our last.


E----------------------------------------------------------
A----------------------------------------------------------
D--4-4-4-4-4-4-4-4-4-4-4-4-4-4-4-4-4-------------9-9-9-9...
G--4-4-4-4-4-4-4-4-4-4-4-4-4-4-4-4-4-6-6-6-6-6-6-7-7-7-7...
B--2-2-2-2-2-2-2-2-2-2-2-2-2-2-2-2-2-6-6-6-6-6-6-7-7-7-7...
e------------------------------------4-4-4-4-4-4-----------
  Welcome to the first night of the rest of our lives           Oh   Goodbye


Tap to rate this tab
 
# A B C D E F G H I J K L M N O P Q R S T U V W X Y Z