Anti-flag - Good N Ready tab

Artist: Anti-Flag
Album: The Bright Lights Of America
Song: Good And Ready
Tabbed by BavarianGuy

Tuning: Eb

Intro:

Guitar 1 (acoustic)
eb|-------------------|----|-----------5-5-5-5-----------------------|
Bb|-5-5-5-5-5-5-5-5-3-|----|-----------5-5-5-5-----------------------|
Gb|-6-6-6-6-6-6-6-6-4-|----|-666-6-6-6-6-6-6-6--555-5-5-5--6-6--8-8--|
Db|-6-6-6-6-6-6-6-6-4-|(2x)|-777-7-7-7-7-7-7-7--666-6-6-6--7-7--9-9--|
Ab|-4-4-4-4-4-4-4-4-2-|----|-777-7-7-7-7-7-7-7--666-6-6-6--7-7--9-9--|
Eb|-------------------|----|-555-5-5-5-5-5-5-5--444-4-4-4--5-5--7-7--|

eb|------------------|-----------5-5-5-5-----------------------|
Bb|-5-5-5-5-5-5-5-5--|-----------5-5-5-5-----------------------|
Gb|-6-6-6-6-6-6-6-6--|-666-6-6-6-6-6-6-6--555-5-5-5--6-6--8-8--|
Db|-6-6-6-6-6-6-6-6--|-777-7-7-7-7-7-7-7--666-6-6-6--7-7--9-9--|
Ab|-4-4-4-4-4-4-4-4--|-777-7-7-7-7-7-7-7--666-6-6-6--7-7--9-9--|
Eb|------------------|-555-5-5-5-5-5-5-5--444-4-4-4--5-5--7-7--|


Chorus:

Guitar 1 And 2 (dist.)
eb|-------------------------------------------------------|
Bb|-5-5-5-5-5-5-5-5--3--5-5-5-5-5-5-5-5-------------------|
Gb|-6-6-6-6-6-6-6-6--4--6-6-6-6-6-6-6-6--6-6-6-6-6-6-6-6--|
Db|-6-6-6-6-6-6-6-6--4--6-6-6-6-6-6-6-6--7-7-7-7-7-7-7-7--|
Ab|-4-4-4-4-4-4-4-4--2--4-4-4-4-4-4-4-4--7-7-7-7-7-7-7-7--|
Eb|--------------------------------------5-5-5-5-5-5-5-5--|

eb|5-5-5-5-5-5-5-5----------------------------------------|
Bb|5-5-5-5-5-5-5-5-------------------------------------5--|
Gb|6-6-6-6-6-6-6-6--5-5-5-5-5-5-5-5--6-6-6-6--8-8-8-8--6--|
Db|7-7-7-7-7-7-7-7--6-6-6-6-6-6-6-6--7-7-7-7--9-9-9-9--6--|
Ab|-----------------6-6-6-6-6-6-6-6--7-7-7-7--9-9-9-9--4--|
Eb|-----------------4-4-4-4-4-4-4-4--5-5-5-5--7-7-7-7-----|


Verse:

Guitar 1 And 2 (dist.)
eb|--------------------------------------5-5-5-5-5-5-5-5--4-4-4-4--5-5--7-7--|
Bb|-5-5-5-5-5-5-5-5--3--5-5-5-5-5-5-5-5--5-5-5-5-5-5-5-5--4-4-4-4--5-5--7-7--|
Gb|-6-6-6-6-6-6-6-6--4--6-6-6-6-6-6-6-6--4-4-4-4-4-4-4-4--5-5-5-5--6-6--8-8--|
Db|-6-6-6-6-6-6-6-6--4--6-6-6-6-6-6-6-6--7-7-7-7-7-7-7-7--6-6-6-6--7-7--9-9--| (2x)
Ab|-4-4-4-4-4-4-4-4--2--4-4-4-4-4-4-4-4--7-7-7-7----------6-6-6-6--7-7--9-9--|
Eb|--------------------------------------5-5-5-5----------4-4-4-4--5-5--7-7--|

eb|---------------------------------|
Bb|---------------------------------|
Gb|---------------------------------|
Db|-66---66---76---76---76-76-76----|
Ab|-66---66---76---76---76-76-76----|
Eb|-44---44---54---54---54-54-54----|


Chorus:

Guitar 1 And 2 (dist.)
eb|-------------------------------------------------------|
Bb|-5-5-5-5-5-5-5-5--3--5-5-5-5-5-5-5-5-------------------|
Gb|-6-6-6-6-6-6-6-6--4--6-6-6-6-6-6-6-6--6-6-6-6-6-6-6-6--|
Db|-6-6-6-6-6-6-6-6--4--6-6-6-6-6-6-6-6--7-7-7-7-7-7-7-7--|
Ab|-4-4-4-4-4-4-4-4--2--4-4-4-4-4-4-4-4--7-7-7-7-7-7-7-7--|
Eb|--------------------------------------5-5-5-5-5-5-5-5--|

eb|5-5-5-5-5-5-5-5-------------------------------------|----|----|
Bb|5-5-5-5-5-5-5-5-------------------------------------|----|-5--|
Gb|6-6-6-6-6-6-6-6--5-5-5-5-5-5-5-5--6-6-6-6--8-8-8-8--|----|-6--|
Db|7-7-7-7-7-7-7-7--6-6-6-6-6-6-6-6--7-7-7-7--9-9-9-9--|(2x)|-6--|
Ab|-----------------6-6-6-6-6-6-6-6--7-7-7-7--9-9-9-9--|----|-4--|
Eb|-----------------4-4-4-4-4-4-4-4--5-5-5-5--7-7-7-7--|----|----|


Verse:

Guitar 1 (dist.)
eb|--------------------------------5-5-5-5-5-5-5-5--4-4-4-4--5-5--7-7--|
Bb|-5-5-5-5-5-5-----5-5-5-5-5-5----5-5-5-5-5-5-5-5--4-4-4-4--5-5--7-7--|
Gb|-6-6-6-6-6-6-----6-6-6-6-6-6----4-4-4-4-4-4-4-4--5-5-5-5--6-6--8-8--|
Db|-6-6-6-6-6-6-----6-6-6-6-6-6----7-7-7-7-7-7-7-7--6-6-6-6--7-7--9-9--| (2x)
Ab|-4-4-4-4-4-4-----4-4-4-4-4-4----7-7-7-7----------6-6-6-6--7-7--9-9--|
Eb|--------------------------------5-5-5-5----------4-4-4-4--5-5--7-7--|

Guitar 2 (dist.)
eb|-------------------------------------------------------|
Bb|-5-5-5-5-5-5---------------5-5-5-5-5-5-----------------|
Gb|-6-6-6-6-6-6--6-6--8-8--9--6-6-6-6-6-6--9-9--8-8--6-6--|
Db|-6-6-6-6-6-6--x-x--x-x--x--6-6-6-6-6-6--x-x--x-x--x-x--|
Ab|-4-4-4-4-4-4--4-4--6-6--7--4-4-4-4-4-4--7-7--6-6--4-4--|
Eb|-------------------------------------------------------|

eb -5-5-5-5-5-5-5-5--4-4-4-4--5-5--7-7--|
Bb -5-5-5-5-5-5-5-5--4-4-4-4--5-5--7-7--|
Gb -4-4-4-4-4-4-4-4--5-5-5-5--6-6--8-8--|
Db -7-7-7-7-7-7-7-7--6-6-6-6--7-7--9-9--| (2x)
Ab -7-7-7-7----------6-6-6-6--7-7--9-9--|
Eb -5-5-5-5----------4-4-4-4--5-5--7-7--|

Guitar 1 and 2 (dist.)
eb|---------------------------------|
Bb|---------------------------------|
Gb|---------------------------------|
Db|-66---66---76---76---76-76-76----|
Ab|-66---66---76---76---76-76-76----|
Eb|-44---44---54---54---54-54-54----|


Chorus:

Guitar 1 And 2 (dist.)
eb|-------------------------------------------------------|
Bb|-5-5-5-5-5-5-5-5--3--5-5-5-5-5-5-5-5-------------------|
Gb|-6-6-6-6-6-6-6-6--4--6-6-6-6-6-6-6-6--6-6-6-6-6-6-6-6--|
Db|-6-6-6-6-6-6-6-6--4--6-6-6-6-6-6-6-6--7-7-7-7-7-7-7-7--|
Ab|-4-4-4-4-4-4-4-4--2--4-4-4-4-4-4-4-4--7-7-7-7-7-7-7-7--|
Eb|--------------------------------------5-5-5-5-5-5-5-5--|

eb|5-5-5-5-5-5-5-5-------------------------------------|----|----|
Bb|5-5-5-5-5-5-5-5-------------------------------------|----|-5--|
Gb|6-6-6-6-6-6-6-6--5-5-5-5-5-5-5-5--6-6-6-6--8-8-8-8--|----|-6--|
Db|7-7-7-7-7-7-7-7--6-6-6-6-6-6-6-6--7-7-7-7--9-9-9-9--|(2x)|-6--|
Ab|-----------------6-6-6-6-6-6-6-6--7-7-7-7--9-9-9-9--|----|-4--|
Eb|-----------------4-4-4-4-4-4-4-4--5-5-5-5--7-7-7-7--|----|----|


Bridge:

Guitar 1 (acoustic)
eb|----------------------|----|---------------------------|
Bb|-5---------9----------|----|-5-5-5-5-5-5-5-5-5-5-5-5-5-|
Gb|-6----5----9----8-----|----|-6-6-6-6-6-6-6-6-6-6-6-6-6-|
Db|-6----7----9----9-----|(4x)|-6-6-6-6-6-6-6-6-6-6-6-6-6-|
Ab|-4----7----7----9-----|----|-4-4-4-4-4-4-4-4-4-4-4-4-4-|
Eb|------5---------7-----|----|---------------------------|

can't find out the strumming


Guitar 2 (dist.)
eb|-----------------------------|----|-----------------------------------------|
Bb|-----------------------------|----|-----------------------------------------|
Gb|-4\6-66-4\6-9-4\6-66-4\6-9-8-|----|-4\6-66666-4\6-66666-4\6-66-8888-9999-11-|
Db|-----------------------------|(3x)|-----------------------------------------|
Ab|-----------------------------|----|-----------------------------------------|
Eb|-----------------------------|----|-----------------------------------------|


Guitar 1 (acoustic)   here: distortion
eb|------------------|----|
Bb|-5-5-5-5-5-5-5-5--|-5--|
Gb|-6-6-6-6-6-6-6-6--|-6--| stumm a
Db|-6-6-6-6-6-6-6-6--|-6--| few times
Ab|-4-4-4-4-4-4-4-4--|-4--|
Eb|------------------|----|

Guitar 2 (dist.)
eb|------------------|----|
Bb|---------5-5-5-5--|-5--|
Gb|---------6-6-6-6--|-6--| strumm a
Db|---------6-6-6-6--|-6--| few times
Ab|---------4-4-4-4--|-4--|
Eb|------------------|----|


Chorus:

Guitar 1 And 2 (dist.)
eb|-------------------------------------------------------|
Bb|-5-5-5-5-5-5-5--3--5-5-5-5-5-5-5-5-5-------------------|
Gb|-6-6-6-6-6-6-6--4--6-6-6-6-6-6-6-6-6--6-6-6-6-6-6-6-6--|
Db|-6-6-6-6-6-6-6--4--6-6-6-6-6-6-6-6-6--7-7-7-7-7-7-7-7--|
Ab|-4-4-4-4-4-4-4--2--4-4-4-4-4-4-4-4-4--7-7-7-7-7-7-7-7--|
Eb|--------------------------------------5-5-5-5-5-5-5-5--|

eb|5-5-5-5-5-5-5-5-------------------------------------|----|----------------|
Bb|5-5-5-5-5-5-5-5-------------------------------------|----|----------------|
Gb|6-6-6-6-6-6-6-6--5-5-5-5-5-5-5-5--6-6-6-6--8-8-8-8--|----|-66--66--66--6--|
Db|7-7-7-7-7-7-7-7--6-6-6-6-6-6-6-6--7-7-7-7--9-9-9-9--|(2x)|-66--66--66--6--|
Ab|-----------------6-6-6-6-6-6-6-6--7-7-7-7--9-9-9-9--|----|-44--66--66--6--|
Eb|-----------------4-4-4-4-4-4-4-4--5-5-5-5--7-7-7-7--|----|----------------|

End
Tap to rate this tab
 
# A B C D E F G H I J K L M N O P Q R S T U V W X Y Z