Song name
# A B C D E F G H I J K L M N O P Q R S T U V W X Y Z

Anti-flag - Sodom Gomorrah Washington Dc Sheep In Shepherds Clothing tab

Anti Flag - Sodom, Gomorrah, Washington D.C (Sheep in Shephards Clothing)
===========================================
tabbed by: Eric Lambrecht
03/29/11
Tuning: Standard (1/2 step down on record)

##########################################

Intro 
(if you want to play it with harmonics, you have to tune your guitar a half step down, sorry)
eb:-[5]~---------------------|-----------------[5]--------------|-------------------------|
bb:-[5]~---------------------|-[7]-------------[5]--------------|-------------------------|
Gb:-[5]~---------------------|-[7]-------------[5]--------------|--   ///  pickslide  ----| 
Db:--------------------------|-[7]------------------------------|-------------------------|
Ab:--------------------------|----------------------------------|-------------------------|
Eb:--------------------------|----------------------------------|-------------------------|

In standard-tuning (without harmonics) this would be:
e:---------------------------|----------------------------------|-------------------------|
b:-16~-----------------------|-----------------16---------------|-------------------------|
G:-15~-----------------------|-10--------------15---------------|--   ///  pickslide  ----| 
D:-16~-----------------------|-11--------------16---------------|-------------------------|
A:---------------------------|-11-------------------------------|-------------------------|
E:---------------------------|----------------------------------|-------------------------|



Main Riff

e:---------------------------------|---------------------------------|
b:---------------------------------|---------------------------------|
G:-8-8-8-8-8-8-8-8-----------------|-4-4-4-4-4-4-4-4-4-4-4-4-4-4-4-4-|
D:-8-8-8-8-8-8-8-8-6-6-6-6-6-6-6-6-|-4-4-4-4-4-4-4-4-4-4-4-4-4-4-4-4-|
A:-6-6-6-6-6-6-6-6-6-6-6-6-6-6-6-6-|-2-2-2-2-2-2-2-2-2-2-2-2-2-2-2-2-|
E:-----------------4-4-4-4-4-4-4-4-|---------------------------------|
 :                                 |                                 |      (2x)
e:-----------------10--------------|---------------10----------------|
b:-----------------10--------------|---------------------------------|
G:-8---11--8---11------11--8---11--|-8--11--8--11-----11--8--11------|
D:---------------------------------|---------------------------------|
A:---------------------------------|---------------------------------|
E:---------------------------------|---------------------------------|
    ^actually double timed! (88 instead of 8, 1111 for 11,...)

Verse 1
e:-------------------|------------------|
b:-------------------|------------------|
G:-8-----------------|-4-----------43---|  (4x)
D:-8-888888-6-666666-|-4-444444444443---|
A:-6-666666-6-666666-|-2-222222222221---|
E:----------4-444444-|------------------|
     p.m...   ......     ..........  


Pre-Chorus
   D#m        D#m4               D#m
e:----------|----------|----------|----------------|
b:-7~-------|----------|-11~------|-7777-7777-7-7--|
G:-8~-------|-13~------|-13~------|-8888-8888-8-8--| 
D:-8~-------|-13~------|-13~------|-8888-8888-8-8--|
A:-6~-------|-13~------|----------|-6666-6666-6-6--|
E:----------|----------|----------|----------------|


Chorus

e:---------------------------------|---------------------------------|
b:-7-7-7-7-7-7-7-7-----------------|---------------------------------|
G:-8-8-8-8-8-8-8-8-----------------|-4-4-4-4-4-4-4-4-4-4-4-4-4-4-4-4-|
D:-8-8-8-8-8-8-8-8-6-6-6-6-6-6-6-6-|-4-4-4-4-4-4-4-4-4-4-4-4-4-4-4-4-|  (2x)
A:-6-6-6-6-6-6-6-6-6-6-6-6-6-6-6-6-|-2-2-2-2-2-2-2-2-2-2-2-2-2-2-2-2-|
E:-----------------4-4-4-4-4-4-4-4-|---------------------------------|


e:-------------------|-------------------|
b:-------------------|-------------------|
G:-------------------|-------------------|
D:---88--88----------|---44--44--44--44--|
A:-66--66-----66--66-|-22--22--22--22----|
E:----------44--44---|-------------------|


Main Riff

e:---------------------------------|---------------------------------|
b:---------------------------------|---------------------------------|
G:-8-8-8-8-8-8-8-8-----------------|-4-4-4-4-4-4-4-4-4-4-4-4-4-4-4-4-|
D:-8-8-8-8-8-8-8-8-6-6-6-6-6-6-6-6-|-4-4-4-4-4-4-4-4-4-4-4-4-4-4-4-4-|
A:-6-6-6-6-6-6-6-6-6-6-6-6-6-6-6-6-|-2-2-2-2-2-2-2-2-2-2-2-2-2-2-2-2-|
E:-----------------4-4-4-4-4-4-4-4-|---------------------------------|
 :                                 |                                 |      (2x)
e:-----------------10--------------|---------------10----------------|
b:---------------------------------|---------------------------------|
G:-8---11--8---11------11--8---11--|-8--11--8--11-----11--8--11------|
D:---------------------------------|---------------------------------|
A:---------------------------------|---------------------------------|
E:---------------------------------|---------------------------------|


Verse 2
e:-------------------|------------------|
b:---11~-------------|-12~--------------|
G:--11~--------------|(11)--------------|
D:-13~---------------|(13)--------------|
A:-------------------|------------------|
E:-------------------|------------------|
 :                   |                  | (4x)
e:-------------------|------------------|
b:-------------------|------------------|
G:-8-----------------|-4-----------43---|  
D:-8-888888-6-666666-|-4-444444444443---|
A:-6-666666-6-666666-|-2-222222222221---|
E:----------4-444444-|------------------|
     p.m...   ......     ..........  




Pre-Chorus
   D#m        D#m4               D#m
e:----------|----------|----------|----------------|
b:-7~-------|----------|-11~------|-7777-7777-7-7--|
G:-8~-------|-13~------|-13~------|-8888-8888-8-8--| 
D:-8~-------|-13~------|-13~------|-8888-8888-8-8--|
A:-6~-------|-13~------|----------|-6666-6666-6-6--|
E:----------|----------|----------|----------------|


Chorus

e:---------------------------------|---------------------------------|
b:-7-7-7-7-7-7-7-7-----------------|---------------------------------|
G:-8-8-8-8-8-8-8-8-----------------|-4-4-4-4-4-4-4-4-4-4-4-4-4-4-4-4-|
D:-8-8-8-8-8-8-8-8-6-6-6-6-6-6-6-6-|-4-4-4-4-4-4-4-4-4-4-4-4-4-4-4-4-|  (2x)
A:-6-6-6-6-6-6-6-6-6-6-6-6-6-6-6-6-|-2-2-2-2-2-2-2-2-2-2-2-2-2-2-2-2-|
E:-----------------4-4-4-4-4-4-4-4-|---------------------------------|


e:-------------------|-------------------|
b:-------------------|-------------------|
G:-------------------|-------------------| (2x)
D:---88--88----------|---44--44--44--44--|
A:-66--66-----66--66-|-22--22--22--22----|
E:----------44--44---|-------------------|


Bridge
e:-----------------|-----------------|-----------------|------------------|
b:-x-7~------------|-x-12~-----------|-----------------|------------------|
G:-x-8~------------|-x-11~-----------|-x-13~-----------|------------------|
D:-x-8~------------|-x-9~------------|-x-13~-----------|---44--44--66--66-| (2x)
A:-x-6~------------|-----------------|-x-11~-----------|-22--22--44--44---|
E:-----------------|-----------------|-----------------|------------------|
 :                 |                 |                 |                  |
e:-----------------|-----------------|-----------------|------------------|
b:-x---------------|-----------------|-----------------|------------------|
G:-x-8---8-8-8-8---|-x-4---4-4-4-4---|-----------------|------------------|
D:-x-8---8-8-8-8---|-x-4---4-4-4-4---|-x-6---6-6-6-6-6-|---44--44--66--66-| (2x)
A:-x-6---6-6-6-6---|-x-2---2-2-2-2---|-x-6---6-6-6-6-6-|-22--22--44--44---|
E:-----------------|-----------------|-x-4---4-4-4-4-4-|------------------|



Pre-Chorus
   D#m        D#m4       D#m2       D#m
e:----------|----------|----------|----------------|
b:-7~-------|----------|-11~------|-7777-7777-7-7--|
G:-8~-------|-13~------|-10~------|-8888-8888-8-8--| 
D:-8~-------|-13~------|-13~------|-8888-8888-8-8--|
A:-6~-------|-13~------|----------|-6666-6666-6-6--|
E:----------|----------|----------|----------------|


Solo: 
   very fast picking (11th fret)
e:--------------------------------------------------|---------------------------------------------|
b:-11111111111111111111111111111...-14--13--11------|-------9-------9-------9-11-9----------------|
G:----------------------------------------------11~-|-10^11---10^11---10^11--------13-11-10-13-11~|
D:--------------------------------------------------|---------------------------------------------|
A:--------------------------------------------------|---------------------------------------------|
E:--------------------------------------------------|---------------------------------------------|

e:-96696696696696669666-9b11b9~---------------------|-----------------------------------14--------|
b:--------------------------------------------------|-14b16b14-12-11-12b14b12-11----14b16~-14b-12~|
G:--------------------------------------------------|----------------------------11---------------|
D:--------------------------------------------------|---------------------------------------------|
A:--------------------------------------------------|---------------------------------------------|
E:--------------------------------------------------|---------------------------------------------|


Chorus

e:---------------------------------|---------------------------------|
b:-7-7-7-7-7-7-7-7-----------------|---------------------------------|
G:-8-8-8-8-8-8-8-8-----------------|-4-4-4-4-4-4-4-4-4-4-4-4-4-4-4-4-|
D:-8-8-8-8-8-8-8-8-6-6-6-6-6-6-6-6-|-4-4-4-4-4-4-4-4-4-4-4-4-4-4-4-4-|  (2x)
A:-6-6-6-6-6-6-6-6-6-6-6-6-6-6-6-6-|-2-2-2-2-2-2-2-2-2-2-2-2-2-2-2-2-|
E:-----------------4-4-4-4-4-4-4-4-|---------------------------------|


e:-------------------|-------------------|
b:-------------------|-------------------|
G:-------------------|-------------------| (3x)
D:---88--88----------|---44--44--44--44--|
A:-66--66-----66--66-|-22--22--22--22----|
E:----------44--44---|-------------------|

Outro
e:-----------------|-----------------|-------------------|-----------------|
b:--7777-9999-7-7--|--9999-6666-6-6--|--------6666--7-6--|--7777777--------|
G:--8888-8888-8-8--|--8888-8888-8-8--|--8888--8888--8-8--|--88888888\------|
D:--8888-8888-8-8--|--8888-8888-8-8--|--8888--8888--8-8--|--88888888\------|
A:--6666-6666-6-6--|--6666-6666-6-6--|--6666--6666--6-6--|--66666666\------|
E:-----------------|-----------------|-------------------|-----------------|
 :                 |                 |                   |                 |
e:-----------------|-----------------|-------------------|-----------------|
b:-----------------|-----------------|-------------------|-----------------|
G:-----------------|-----------------|-1515..-1313..-1110|-151515...-------|
D:-----------------|-----------------|-------------------|-----------------|
A:-----------------|-----------------|-1313..-1111..-9-8-|-131313...-------|
E:-----------------|-----------------|-------------------|-----------------|
                                       ^same rhythm as above
Tap to rate this tab
 
# A B C D E F G H I J K L M N O P Q R S T U V W X Y Z