Song name
# A B C D E F G H I J K L M N O P Q R S T U V W X Y Z

Anti-flag - The Great Depression tab

Artist: Anti-flag
Album: The People or the Gun
Track: The Gre(A)t Depression
Guitar 1: Rhythm, Standard (EADGBe)
Guitar 2: Lead, Standard (EADGBe)


Intro
Guitar 1
e|--------------------------------|--------------------------------|
B|--------------------------------|--------------------------------|
G|--------------------------------|--------------------------------|
D|--------------------------------|--------------------------------|
A|--------------------------------|--------------------------------|
E|--------------------------------|--------------------------------|

e|--------------------------------|--------------------------------|
B|--------------------------------|--------------------------------|
G|-4-------4-------4-------4------|-4-------4-4-4-------4-------4-4|
D|-4-------4-------4-------4------|-4-------4-4-4-------4-------4-4|
A|-2-------2-------2-------2------|-2-------2-2-2-------2-------2-2|
E|--------------------------------|--------------------------------|

e|--------------------------------|
B|--------------------------------|
G|-4-------4----------------------|
D|-4-------4----------------------|
A|-2-------2----------------------|
E|--------------------------------|

Guitar 2
e|--------------------------------|--------------------------------|
B|--------------------------------|--------------------------------|
G|-------4---------------4--------|-------4---------------4--------|
D|---4-------4---4---4-------4---4|---4-------4---4---4-------4---4|Repeat
A|-2---2-------2---2---2-------2--|-2---2-------2---2---2-------2--|
E|--------------------------------|--------------------------------|


Verse 1
No Guitar 1
Guitar 2
e|--------------------------------|--------------------------------|
B|--------------------------------|--------------------------------|
G|-------4---------------4--------|-------4---------------4--------|
D|---4-------4---4---4-------4---4|---4-------4---4---4-------4---4|x2
A|-2---2-------2---2---2-------2--|-2---2-------2---2---2-------2--|
E|--------------------------------|--------------------------------|


Chorus
Guitar 1
e|--------------------------------|--------------------------------|
B|--------------------------------|--------------------------------|
G|--------------------------------|-4------------------------------|
D|-4---------------2--------------|-4------------------------------|
A|-4---------------2--------------|-2------------------------------|
E|-2---------------0--------------|--------------------------------|

e|--------------------------------|--------------------------------|
B|--------------------------------|--------------------------------|
G|--------------------------------|-4------------------------------|
D|-4---------------2--------------|-4-------4-------2-2-2-2-2-2-2-2|
A|-4---------------2--------------|-2-------4-------2-2-2-2-2-2-2-2|
E|-2---------------0--------------|---------2-------0-0-0-0-0-0-0-0|
                                                    . . . . . . . .
e|--------------------------------|--------------------------------|
B|--------------------------------|--------------------------------|
G|--------------------------------|--------------------------------|
D|-2-2-2-2-2-2-2-2-4--------------|-2------------------------------|
A|-2-2-2-2-2-2-2-2-4--------------|-2------------------------------|
E|-0-0-0-0-0-0-0-0-2--------------|-0------------------------------|
   . . gradually release
Guitar 2
e|--------------------------------|--------------------------------|
B|--------------------------------|--------------------------------|
G|--------------------------------|-------4---------------4--------|
D|-4---------------2--------------|---4-------4---4---4-------4---4|
A|-4---------------2--------------|-2---2-------2---2---2-------2--|
E|-2---------------0--------------|--------------------------------|

e|--------------------------------|--------------------------------|
B|--------------------------------|--------------------------------|
G|--------------------------------|-4------------------------------|
D|-4---------------2--------------|-4-------4-------2-2-2-2-2-2-2-2|
A|-4---------------2--------------|-2-------4-------2-2-2-2-2-2-2-2|
E|-2---------------0--------------|---------2-------0-0-0-0-0-0-0-0|
                                                    . . . . . . . .
e|--------------------------------|--------------------------------|
B|--------------------------------|--------------------------------|
G|--------------------------------|--------------------------------|
D|-2-2-2-2-2-2-2-2-4--------------|-2------------------------------|
A|-2-2-2-2-2-2-2-2-4--------------|-2------------------------------|
E|-0-0-0-0-0-0-0-0-2--------------|-0------------------------------|
   . . gradually release

Bridge 1
Guitar 1
e|--------------------------------|--------------------------------|
B|--------------------------------|--------------------------------|
G|---------------------------9-9-9|---------------------------9-9-9|
D|-9-------9-------9-------9-9-9-9|-9-------9-------9-------9-9-9-9|x4
A|-9-------9-------9-------9-7-7-7|-9-------9-------9-------9-7-7-7|
E|-7-------7-------7-------7------|-7-------7-------7-------7------|

Guitar 2
e|--------------------------------|--------------------------------|
B|--------------------------------|--------------------------------|
G|-----------6-8-9-8--8--8-8-6---6|-----------6-8-9-8--8--8-8-6---6|
D|-9--9--9-9-------------------9--|-9--9--9-9-------------------9--|x4
A|--------------------------------|--------------------------------|
E|--------------------------------|--------------------------------|


Verse 2
Guitar 1 + 2
e|--------------------------------|--------------------------------|
B|--------------------------------|--------------------------------|
G|---------------------------9-9-9|---------------------------9-9-9|
D|-9-------9-------9-------9-9-9-9|-9-------9-------9-------9-9-9-9|x4
A|-9-------9-------9-------9-7-7-7|-9-------9-------9-------9-7-7-7|
E|-7-------7-------7-------7------|-7-------7-------7-------7------|


Chorus
Guitar 1 + 2
e|--------------------------------|--------------------------------|
B|--------------------------------|--------------------------------|
G|-------------------------4------|--------------------------------|
D|-4---4---4---4---4---4---4------|-2---2---2---2---2---2---4------|
A|-4---4---4---4---4---4---2------|-2---2---2---2---2---2---4------|
E|-2---2---2---2---2---2----------|-0---0---0---0---0---0---2------|

e|--------------------------------|--------------------------------|
B|--------------------------------|--------------------------------|
G|---------------------------9-9-9|---------------------------9-9-9|
D|-9-------9-------9-------9-9-9-9|-9-------9-------9-------9-9-9-9|
A|-9-------9-------9-------9-7-7-7|-9-------9-------9-------9-7-7-7|
E|-7-------7-------7-------7------|-7-------7-------7-------7------|

e|--------------------------------|--------------------------------|
B|--------------------------------|--------------------------------|
G|-------------------------4------|--------------------------------|
D|-4---4---4---4---4---4---4------|-2---2---2---2---2---2---4------|
A|-4---4---4---4---4---4---2------|-2---2---2---2---2---2---4------|
E|-2---2---2---2---2---2----------|-0---0---0---0---0---0---2------|

e|--------------------------------|--------------------------------|
B|--------------------------------|--------------------------------|
G|-4------------------------------|--------------------------------|
D|-4-------4-------2-2-2-2-2-2-2-2|-2-2-2-2-2-2-2-2-4--------------|
A|-2-------4-------2-2-2-2-2-2-2-2|-2-2-2-2-2-2-2-2-4--------------|
E|---------2-------0-0-0-0-0-0-0-0|-0-0-0-0-0-0-0-0-2--------------|
                   . . . . . . . .  . . gradually release
e|--------------------------------|
B|--------------------------------|
G|--------------------------------|
D|-2------------------------------|
A|-2------------------------------|
E|-0------------------------------|


Bridge 2
Guitar 1
e|--------------------------------|--------------------------------|
B|--------------------------------|--------------------------------|
G|-4------------------------------|--------------------------------|
D|-4------------------------------|--------------------------------|
A|-2------------------------------|--------------------------------|
E|--------------------------------|--------------------------------|

Guitar 2
e|--------------------------------|--------------------------------|
B|--------------------------------|--------------------------------|
G|-----------6-8-9-8--8--8-8-6---6|-----------6-8-9-8--8--8-8-6---6|
D|-9--9--9-9-------------------9--|-9--9--9-9-------------------9--|x2
A|--------------------------------|--------------------------------|
E|--------------------------------|--------------------------------|


Verse 3
Guitar 1
e|--------------------------------|--------------------------------|
B|--------------------------------|--------------------------------|
G|-4------------------------------|--------------------------------|
D|-4------------------------------|--------------------------------|
A|-2------------------------------|--------------------------------|
E|--------------------------------|--------------------------------|

Guitar 2
e|--------------------------------|--------------------------------|
B|--------------------------------|--------------------------------|
G|-------4---------------4--------|-------4---------------4--------|
D|---4-------4---4---4-------4---4|---4-------4---4---4-------4---4|x4
A|-2---2-------2---2---2-------2--|-2---2-------2---2---2-------2--|
E|--------------------------------|--------------------------------|


Chorus
Guitar 1
e|--------------------------------|--------------------------------|
B|--------------------------------|--------------------------------|
G|--------------------------------|-4------------------------------|
D|-4---------------2--------------|-4------------------------------|
A|-4---------------2--------------|-2------------------------------|
E|-2---------------0--------------|--------------------------------|

e|--------------------------------|--------------------------------|
B|--------------------------------|--------------------------------|
G|--------------------------------|-4-4-4-4-4-4-4-4-4-4-4-4-4-4-4-4|
D|-4---------------2--------------|-4-4-4-4-4-4-4-4-4-4-4-4-4-4-4-4|
A|-4---------------2--------------|-2-2-2-2-2-2-2-2-2-2-2-2-2-2-2-2|
E|-2---------------0--------------|--------------------------------|

Guitar 2
e|--------------------------------|--------------------------------|
B|--------------------------------|--------------------------------|
G|--------------------------------|-------4---------------4--------|
D|-4---------------2--------------|---4-------4---4---4-------4---4|
A|-4---------------2--------------|-2---2-------2---2---2-------2--|
E|-2---------------0--------------|--------------------------------|

e|--------------------------------|--------------------------------|
B|--------------------------------|--------------------------------|
G|--------------------------------|16-16-16-16-16-16-16-16-16-16-16|
D|-4---------------2--------------|-x--x-x--x--x--x--x--x--x--x--x-|
A|-4---------------2--------------|14-14-14-14-14-14-14-14-14-14-14|
E|-2---------------0--------------|--------------------------------|


Bridge 3
Guitar 1
e|--------------------------------|--------------------------------|
B|--------------------------------|--------------------------------|
G|---------------------------9-9-9|---------------------------9-9-9|
D|-9-------9-------9-------9-9-9-9|-9-------9-------9-------9-9-9-9|
A|-9-------9-------9-------9-7-7-7|-9-------9-------9-------9-7-7-7|
E|-7-------7-------7-------7------|-7-------7-------7-------7------|

e|--------------------------------|--------------------------------|
B|--------------------------------|--------------------------------|
G|--------------------------------|--------------------------------|
D|-4---4---4---4---4---4---4---4--|-2---2---2---2---2---2---2---2--|All x4
A|-4---4---4---4---4---4---4---4--|-2---2---2---2---2---2---2---2--|
E|-2---2---2---2---2---2---2---2--|-0---0---0---0---0---0---0---0--|

Guitar 2
e|--------------------------------|--------------------------------|
B|--------------------------------|--------------------------------|
G|----16------16------16------16--|----16------16------16------16--|
D|----x-------x-------x-------x---|----x-------x-------x-------x---|
A|----14------14------14------14--|----14------14------14------14--|
E|--------------------------------|--------------------------------|

e|--------------------------------|--------------------------------|
B|--------------------------------|--------------------------------|
G|-11------11------11--14---------|-9-------9-------9---11---------|
D|-x-------x-------x---x----------|-x-------x-------x---x----------|All x4
A|-9-------9-------9---12---------|-7-------7-------7---9----------|
E|--------------------------------|--------------------------------|


Bridge 4
Guitar 1
e|--------------------------------|--------------------------------|
B|--------------------------------|--------------------------------|
G|---------------------------9-9-9|---------------------------9-9-9|
D|-9-------9-------9-------9-9-9-9|-9-------9-------9-------9-9-9-9|x4
A|-9-------9-------9-------9-7-7-7|-9-------9-------9-------9-7-7-7|
E|-7-------7-------7-------7------|-7-------7-------7-------7------|

Guitar 2
e|--------------------------------|--------------------------------|
B|--------------------------------|--------------------------------|
G|-----------6-8-9-8--8--8-8-6---6|-----------6-8-9-8--8--8-8-6---6|
D|-9--9--9-9-------------------9--|-9--9--9-9-------------------9--|x4
A|--------------------------------|--------------------------------|
E|--------------------------------|--------------------------------|


Outro
Guitar 1
e|--------------------------------|--------------------------------|
B|--------------------------------|--------------------------------|
G|--------------------------------|-4------------------------------|
D|-4---------------2--------------|-4------------------------------|x2
A|-4-------2-------2--------------|-2------------------------------|
E|-2---------------0------2-------|--------------------------------|

Guitar 2
e|--------------------------------|--------------------------------|
B|--------------------------------|--------------------------------|
G|--------------------------------|-4-----4---------------4--------|
D|-4---------------2--------------|-4-4-------4---4---4-------4---4|
A|-4-------2-------2--------------|-2---2-------2---2---2-------2--|
E|-2---------------0------2-------|--------------------------------|

e|--------------------------------|--------------------------------|
B|--------------------------------|--------------------------------|
G|--------------------------------|-4-----4---------4--------------|
D|-4---------------2--------------|-4-4-------4---4-4--------------|
A|-4-------2-------2--------------|-2---2-------2---2--------------|
E|-2---------------0------2-------|--------------------------------|
Tap to rate this tab
# A B C D E F G H I J K L M N O P Q R S T U V W X Y Z