Song name
# A B C D E F G H I J K L M N O P Q R S T U V W X Y Z

Anti-flag - Africom tab

This is a tab of anti-flags' bonus track of The People Or The Gun.
(http://youtu.be/Xdf8OUJypvE)
If guess this is the correct intro tab

Enjoy!

>>>> = let it ring
\ = slide

E------------------------------------------------------------------------|
B------------------------------------------------------------------------|
G-4>>>4-4----------------------------------------------------------------|
D-4>>>4-4-----------4-4-5-5-4-4-----4-4-5-5-4-4-----3-3-4-4-3-3----2\4\5-|
A-2>>>2-2-------2-2-------------0-0--------------------------------------|
E----------------------------------------------3-3---------------0-------|

E-----------------------------------------------------------------------|
B-----------------------------------------------------------------------|
G-----------------------------------------------------------------------|
D---------4-4-5-5-4-4-----4-4-5-5-4-4-----3-3-4-4-3-3-------2-2-4-4-5-5-|  x2
A-----2-2-------------0-0-----------------------------------------------|
E-------------------------------------3-3---------------0-0-------------|
Tap to rate this tab
# A B C D E F G H I J K L M N O P Q R S T U V W X Y Z